  0
SECTION
  2
HEADER
  9
$ACADVER
  1
AC1015
  9
$ACADMAINTVER
 70
     6
  9
$DWGCODEPAGE
  3
ANSI_1254
  9
$INSBASE
 10
0.0
 20
0.0
 30
0.0
  9
$EXTMIN
 10
0.0
 20
0.0
 30
0.0
  9
$EXTMAX
 10
279.4
 20
215.9
 30
0.0
  9
$LIMMIN
 10
0.0
 20
0.0
  9
$LIMMAX
 10
279.4
 20
215.9
  9
$ORTHOMODE
 70
     0
  9
$REGENMODE
 70
     1
  9
$FILLMODE
 70
     1
  9
$QTEXTMODE
 70
     0
  9
$MIRRTEXT
 70
     1
  9
$LTSCALE
 40
1.0
  9
$ATTMODE
 70
     1
  9
$TEXTSIZE
 40
3.5
  9
$TRACEWID
 40
1.0
  9
$TEXTSTYLE
  7
Standard
  9
$CLAYER
  8
0
  9
$CELTYPE
  6
ByLayer
  9
$CECOLOR
 62
   256
  9
$CELTSCALE
 40
1.0
  9
$DISPSILH
 70
     0
  9
$DIMSCALE
 40
1.0
  9
$DIMASZ
 40
3.5
  9
$DIMEXO
 40
1.0
  9
$DIMDLI
 40
3.75
  9
$DIMRND
 40
0.0
  9
$DIMDLE
 40
0.0
  9
$DIMEXE
 40
1.0
  9
$DIMTP
 40
0.0
  9
$DIMTM
 40
0.0
  9
$DIMTXT
 40
3.5
  9
$DIMCEN
 40
2.5
  9
$DIMTSZ
 40
0.0
  9
$DIMTOL
 70
     0
  9
$DIMLIM
 70
     0
  9
$DIMTIH
 70
     1
  9
$DIMTOH
 70
     1
  9
$DIMSE1
 70
     0
  9
$DIMSE2
 70
     0
  9
$DIMTAD
 70
     1
  9
$DIMZIN
 70
     0
  9
$DIMBLK
  1

  9
$DIMASO
 70
     1
  9
$DIMSHO
 70
     1
  9
$DIMPOST
  1

  9
$DIMAPOST
  1

  9
$DIMALT
 70
     0
  9
$DIMALTD
 70
     3
  9
$DIMALTF
 40
0.0393700787
  9
$DIMLFAC
 40
1.0
  9
$DIMTOFL
 70
     1
  9
$DIMTVP
 40
0.0
  9
$DIMTIX
 70
     0
  9
$DIMSOXD
 70
     0
  9
$DIMSAH
 70
     0
  9
$DIMBLK1
  1

  9
$DIMBLK2
  1

  9
$DIMSTYLE
  2
ISO-25
  9
$DIMCLRD
 70
     0
  9
$DIMCLRE
 70
     0
  9
$DIMCLRT
 70
     0
  9
$DIMTFAC
 40
1.0
  9
$DIMGAP
 40
1.524
  9
$DIMJUST
 70
     0
  9
$DIMSD1
 70
     0
  9
$DIMSD2
 70
     0
  9
$DIMTOLJ
 70
     0
  9
$DIMTZIN
 70
     0
  9
$DIMALTZ
 70
     0
  9
$DIMALTTZ
 70
     0
  9
$DIMUPT
 70
     0
  9
$DIMDEC
 70
     2
  9
$DIMTDEC
 70
     2
  9
$DIMALTU
 70
     2
  9
$DIMALTTD
 70
     3
  9
$DIMTXSTY
  7
Standard
  9
$DIMAUNIT
 70
     0
  9
$DIMADEC
 70
     2
  9
$DIMALTRND
 40
0.0
  9
$DIMAZIN
 70
     0
  9
$DIMDSEP
 70
    44
  9
$DIMATFIT
 70
     3
  9
$DIMFRAC
 70
     0
  9
$DIMLDRBLK
  1

  9
$DIMLUNIT
 70
     2
  9
$DIMLWD
 70
    -2
  9
$DIMLWE
 70
    -2
  9
$DIMTMOVE
 70
     0
  9
$LUNITS
 70
     2
  9
$LUPREC
 70
     2
  9
$SKETCHINC
 40
1.0
  9
$FILLETRAD
 40
10.0
  9
$AUNITS
 70
     0
  9
$AUPREC
 70
     2
  9
$MENU
  1
.
  9
$ELEVATION
 40
0.0
  9
$PELEVATION
 40
0.0
  9
$THICKNESS
 40
0.0
  9
$LIMCHECK
 70
     0
  9
$CHAMFERA
 40
0.0
  9
$CHAMFERB
 40
0.0
  9
$CHAMFERC
 40
0.0
  9
$CHAMFERD
 40
0.0
  9
$SKPOLY
 70
     0
  9
$TDCREATE
 40
2459741.591053588
  9
$TDUCREATE
 40
2459741.466053588
  9
$TDUPDATE
 40
2459741.591056701
  9
$TDUUPDATE
 40
2459741.466056701
  9
$TDINDWG
 40
0.0000000116
  9
$TDUSRTIMER
 40
0.0000000116
  9
$USRTIMER
 70
     1
  9
$ANGBASE
 50
0.0
  9
$ANGDIR
 70
     0
  9
$PDMODE
 70
     0
  9
$PDSIZE
 40
-1.0
  9
$PLINEWID
 40
0.0
  9
$SPLFRAME
 70
     0
  9
$SPLINETYPE
 70
     6
  9
$SPLINESEGS
 70
     8
  9
$HANDSEED
  5
208
  9
$SURFTAB1
 70
     6
  9
$SURFTAB2
 70
     6
  9
$SURFTYPE
 70
     6
  9
$SURFU
 70
     6
  9
$SURFV
 70
     6
  9
$UCSBASE
  2

  9
$UCSNAME
  2

  9
$UCSORG
 10
0.0
 20
0.0
 30
0.0
  9
$UCSXDIR
 10
1.0
 20
0.0
 30
0.0
  9
$UCSYDIR
 10
0.0
 20
1.0
 30
0.0
  9
$UCSORTHOREF
  2

  9
$UCSORTHOVIEW
 70
     0
  9
$UCSORGTOP
 10
0.0
 20
0.0
 30
0.0
  9
$UCSORGBOTTOM
 10
0.0
 20
0.0
 30
0.0
  9
$UCSORGLEFT
 10
0.0
 20
0.0
 30
0.0
  9
$UCSORGRIGHT
 10
0.0
 20
0.0
 30
0.0
  9
$UCSORGFRONT
 10
0.0
 20
0.0
 30
0.0
  9
$UCSORGBACK
 10
0.0
 20
0.0
 30
0.0
  9
$PUCSBASE
  2

  9
$PUCSNAME
  2

  9
$PUCSORG
 10
0.0
 20
0.0
 30
0.0
  9
$PUCSXDIR
 10
1.0
 20
0.0
 30
0.0
  9
$PUCSYDIR
 10
0.0
 20
1.0
 30
0.0
  9
$PUCSORTHOREF
  2

  9
$PUCSORTHOVIEW
 70
     0
  9
$PUCSORGTOP
 10
0.0
 20
0.0
 30
0.0
  9
$PUCSORGBOTTOM
 10
0.0
 20
0.0
 30
0.0
  9
$PUCSORGLEFT
 10
0.0
 20
0.0
 30
0.0
  9
$PUCSORGRIGHT
 10
0.0
 20
0.0
 30
0.0
  9
$PUCSORGFRONT
 10
0.0
 20
0.0
 30
0.0
  9
$PUCSORGBACK
 10
0.0
 20
0.0
 30
0.0
  9
$USERI1
 70
     0
  9
$USERI2
 70
     0
  9
$USERI3
 70
     0
  9
$USERI4
 70
     0
  9
$USERI5
 70
     0
  9
$USERR1
 40
0.0
  9
$USERR2
 40
0.0
  9
$USERR3
 40
0.0
  9
$USERR4
 40
0.0
  9
$USERR5
 40
0.0
  9
$WORLDVIEW
 70
     1
  9
$SHADEDGE
 70
     3
  9
$SHADEDIF
 70
    70
  9
$TILEMODE
 70
     1
  9
$MAXACTVP
 70
    64
  9
$PINSBASE
 10
0.0
 20
0.0
 30
0.0
  9
$PLIMCHECK
 70
     0
  9
$PEXTMIN
 10
1.0000000000E+20
 20
1.0000000000E+20
 30
1.0000000000E+20
  9
$PEXTMAX
 10
-1.0000000000E+20
 20
-1.0000000000E+20
 30
-1.0000000000E+20
  9
$PLIMMIN
 10
0.0
 20
0.0
  9
$PLIMMAX
 10
420.0
 20
297.0
  9
$UNITMODE
 70
     0
  9
$VISRETAIN
 70
     1
  9
$PLINEGEN
 70
     0
  9
$PSLTSCALE
 70
     1
  9
$TREEDEPTH
 70
  3020
  9
$CMLSTYLE
  2
Standard
  9
$CMLJUST
 70
     0
  9
$CMLSCALE
 40
20.0
  9
$PROXYGRAPHICS
 70
     1
  9
$MEASUREMENT
 70
     1
  9
$CELWEIGHT
370
    -1
  9
$ENDCAPS
280
     0
  9
$JOINSTYLE
280
     0
  9
$LWDISPLAY
290
     1
  9
$INSUNITS
 70
     4
  9
$HYPERLINKBASE
  1

  9
$STYLESHEET
  1

  9
$XEDIT
290
     1
  9
$CEPSNTYPE
380
     0
  9
$PSTYLEMODE
290
     1
  9
$FINGERPRINTGUID
  2
{cacf22c6-bc84-4a42-bab8-ce4dd43a4a8a}
  9
$VERSIONGUID
  2
{FAEB1C32-E019-11D5-929B-00C0DF256EC4}
  9
$EXTNAMES
290
     1
  9
$PSVPSCALE
 40
0.0
  9
$OLESTARTUP
290
     0
  0
ENDSEC
  0
SECTION
  2
CLASSES
  0
CLASS
  1
ACDBDICTIONARYWDFLT
  2
AcDbDictionaryWithDefault
  3
ObjectDBX Classes
 90
        0
280
     0
281
     0
  0
CLASS
  1
VISUALSTYLE
  2
AcDbVisualStyle
  3
ObjectDBX Classes
 90
     4095
280
     0
281
     0
  0
CLASS
  1
MATERIAL
  2
AcDbMaterial
  3
ObjectDBX Classes
 90
     1153
280
     0
281
     0
  0
CLASS
  1
SCALE
  2
AcDbScale
  3
ObjectDBX Classes
 90
     1153
280
     0
281
     0
  0
CLASS
  1
TABLESTYLE
  2
AcDbTableStyle
  3
ObjectDBX Classes
 90
     4095
280
     0
281
     0
  0
CLASS
  1
MLEADERSTYLE
  2
AcDbMLeaderStyle
  3
ACDB_MLEADERSTYLE_CLASS
 90
     4095
280
     0
281
     0
  0
CLASS
  1
SUN
  2
AcDbSun
  3
SCENEOE
 90
     1153
280
     0
281
     0
  0
CLASS
  1
ACDBPLACEHOLDER
  2
AcDbPlaceHolder
  3
ObjectDBX Classes
 90
        0
280
     0
281
     0
  0
CLASS
  1
LAYOUT
  2
AcDbLayout
  3
ObjectDBX Classes
 90
        0
280
     0
281
     0
  0
ENDSEC
  0
SECTION
  2
TABLES
  0
TABLE
  2
VPORT
  5
8
330
0
100
AcDbSymbolTable
 70
     1
  0
VPORT
  5
29
330
8
100
AcDbSymbolTableRecord
100
AcDbViewportTableRecord
  2
*Active
 70
     0
 10
0.0
 20
0.0
 11
1.0
 21
1.0
 12
139.7
 22
107.95
 13
0.0
 23
0.0
 14
10.0
 24
10.0
 15
10.0
 25
10.0
 16
0.0
 26
0.0
 36
1.0
 17
0.0
 27
0.0
 37
0.0
 40
215.9
 41
1.2941176471
 42
50.0
 43
0.0
 44
0.0
 50
0.0
 51
0.0
 71
     0
 72
  2000
 73
     1
 74
     3
 75
     0
 76
     0
 77
     0
 78
     0
281
     0
 65
     1
110
0.0
120
0.0
130
0.0
111
1.0
121
0.0
131
0.0
112
0.0
122
1.0
132
0.0
 79
     0
146
0.0
  0
ENDTAB
  0
TABLE
  2
LTYPE
  5
5
330
0
100
AcDbSymbolTable
 70
     6
  0
LTYPE
  5
14
330
5
100
AcDbSymbolTableRecord
100
AcDbLinetypeTableRecord
  2
ByBlock
 70
     0
  3

 72
    65
 73
     0
 40
0.0
  0
LTYPE
  5
15
330
5
100
AcDbSymbolTableRecord
100
AcDbLinetypeTableRecord
  2
ByLayer
 70
     0
  3

 72
    65
 73
     0
 40
0.0
  0
LTYPE
  5
16
330
5
100
AcDbSymbolTableRecord
100
AcDbLinetypeTableRecord
  2
Continuous
 70
     0
  3
Solid line
 72
    65
 73
     0
 40
0.0
  0
LTYPE
  5
6E
330
5
100
AcDbSymbolTableRecord
100
AcDbLinetypeTableRecord
  2
HIDDEN
 70
     0
  3
Hidden __ __ __ __ __ __ __ __ __ __ __ __ __ __
 72
    65
 73
     2
 40
1.905
 49
1.27
 74
     0
 49
-0.635
 74
     0
  0
LTYPE
  5
6F
330
5
100
AcDbSymbolTableRecord
100
AcDbLinetypeTableRecord
  2
PHANTOM
 70
     0
  3
Phantom ______  __  __  ______  __  __  ______
 72
    65
 73
     6
 40
12.7
 49
6.35
 74
     0
 49
-1.27
 74
     0
 49
1.27
 74
     0
 49
-1.27
 74
     0
 49
1.27
 74
     0
 49
-1.27
 74
     0
  0
LTYPE
  5
70
330
5
100
AcDbSymbolTableRecord
100
AcDbLinetypeTableRecord
  2
CENTER
 70
     0
  3
Center ____ _ ____ _ ____ _ ____ _ ____ _ ____
 72
    65
 73
     4
 40
10.16
 49
6.35
 74
     0
 49
-1.27
 74
     0
 49
1.27
 74
     0
 49
-1.27
 74
     0
  0
LTYPE
  5
71
330
5
100
AcDbSymbolTableRecord
100
AcDbLinetypeTableRecord
  2
CENTERX2
 70
     0
  3
Center (2x) ________  __  ________  __  _____
 72
    65
 73
     4
 40
20.32
 49
12.7
 74
     0
 49
-2.54
 74
     0
 49
2.54
 74
     0
 49
-2.54
 74
     0
  0
LTYPE
  5
72
330
5
100
AcDbSymbolTableRecord
100
AcDbLinetypeTableRecord
  2
DOT2
 70
     0
  3
Dot (.5x) ........................................
 72
    65
 73
     2
 40
0.635
 49
0.0
 74
     0
 49
-0.635
 74
     0
  0
ENDTAB
  0
TABLE
  2
LAYER
  5
2
330
0
100
AcDbSymbolTable
 70
    17
  0
LAYER
  5
10
330
2
100
AcDbSymbolTableRecord
100
AcDbLayerTableRecord
  2
0
 70
     0
 62
     7
  6
Continuous
370
    -3
390
F
  0
LAYER
  5
73
330
2
100
AcDbSymbolTableRecord
100
AcDbLayerTableRecord
  2
FORMAT
 70
     0
 62
     7
  6
Continuous
370
    -3
390
F
  0
LAYER
  5
74
330
2
100
AcDbSymbolTableRecord
100
AcDbLayerTableRecord
  2
YARDIMCI_GEOMETRI
 70
     0
 62
    -6
  6
Continuous
290
     0
370
    -3
390
F
  0
LAYER
  5
75
330
2
100
AcDbSymbolTableRecord
100
AcDbLayerTableRecord
  2
SAYFA_CERCEVESI
 70
     0
 62
     7
  6
Continuous
370
    25
390
F
  0
LAYER
  5
76
330
2
100
AcDbSymbolTableRecord
100
AcDbLayerTableRecord
  2
ANTET
 70
     0
 62
     7
  6
Continuous
370
    -3
390
F
  0
LAYER
  5
77
330
2
100
AcDbSymbolTableRecord
100
AcDbLayerTableRecord
  2
OLCU
 70
     0
 62
   150
  6
Continuous
370
    -3
390
F
  0
LAYER
  5
78
330
2
100
AcDbSymbolTableRecord
100
AcDbLayerTableRecord
  2
METIN
 70
     0
 62
    96
  6
Continuous
370
    -3
390
F
  0
LAYER
  5
79
330
2
100
AcDbSymbolTableRecord
100
AcDbLayerTableRecord
  2
BALON
 70
     0
 62
     5
  6
Continuous
370
    -3
390
F
  0
LAYER
  5
7A
330
2
100
AcDbSymbolTableRecord
100
AcDbLayerTableRecord
  2
VURGU
 70
     0
 62
     7
  6
Continuous
370
    -3
390
F
  0
LAYER
  5
7B
330
2
100
AcDbSymbolTableRecord
100
AcDbLayerTableRecord
  2
SILIK
 70
     0
 62
     7
  6
Continuous
370
    -3
390
F
  0
LAYER
  5
7C
330
2
100
AcDbSymbolTableRecord
100
AcDbLayerTableRecord
  2
MODEL
 70
     0
 62
     7
  6
Continuous
370
    -3
390
F
  0
LAYER
  5
7D
330
2
100
AcDbSymbolTableRecord
100
AcDbLayerTableRecord
  2
DETAYLANDıRMA
 70
     0
 62
   190
  6
Continuous
370
    -3
390
F
  0
LAYER
  5
7E
330
2
100
AcDbSymbolTableRecord
100
AcDbLayerTableRecord
  2
TOLERANS
 70
     0
 62
   230
  6
Continuous
370
    -3
390
F
  0
LAYER
  5
7F
330
2
100
AcDbSymbolTableRecord
100
AcDbLayerTableRecord
  2
MERKEZ_CIZGILERI
 70
     0
 62
    30
  6
Continuous
370
    -3
390
F
  0
LAYER
  5
80
330
2
100
AcDbSymbolTableRecord
100
AcDbLayerTableRecord
  2
KESIT-DETAY_CIZGILERI
 70
     0
 62
     7
  6
Continuous
370
    -3
390
F
  0
LAYER
  5
81
330
2
100
AcDbSymbolTableRecord
100
AcDbLayerTableRecord
  2
\U+041E\U+0421\U+0415\U+0412\U+042B\U+0415
 70
     0
 62
     7
  6
Continuous
370
    -3
390
F
  0
LAYER
  5
82
330
2
100
AcDbSymbolTableRecord
100
AcDbLayerTableRecord
  2
\U+0412\U+041E\U+0414\U+042F\U+041D\U+042B\U+0415_\U+0417\U+041D\U+0410\U+041A\U+0418
 70
     0
 62
    11
  6
Continuous
370
    -3
390
F
  0
ENDTAB
  0
TABLE
  2
STYLE
  5
3
330
0
100
AcDbSymbolTable
 70
     1
  0
STYLE
  5
11
330
3
100
AcDbSymbolTableRecord
100
AcDbTextStyleTableRecord
  2
Standard
 70
     0
 40
0.0
 41
1.0
 50
0.0
 71
     0
 42
3.5
  3
txt
  4

  0
ENDTAB
  0
TABLE
  2
VIEW
  5
6
330
0
100
AcDbSymbolTable
 70
     0
  0
ENDTAB
  0
TABLE
  2
UCS
  5
7
330
0
100
AcDbSymbolTable
 70
     0
  0
ENDTAB
  0
TABLE
  2
APPID
  5
9
330
0
100
AcDbSymbolTable
 70
     1
  0
APPID
  5
12
330
9
100
AcDbSymbolTableRecord
100
AcDbRegAppTableRecord
  2
ACAD
 70
     0
  0
ENDTAB
  0
TABLE
  2
DIMSTYLE
  5
A
330
0
100
AcDbSymbolTable
 70
     1
100
AcDbDimStyleTable
  0
DIMSTYLE
105
27
330
A
100
AcDbSymbolTableRecord
100
AcDbDimStyleTableRecord
  2
ISO-25
 70
     0
 41
2.5
 42
0.625
 43
3.75
 44
1.25
 73
     0
 74
     0
 77
     1
 78
     8
140
2.5
141
2.5
143
0.0393700787
147
0.625
171
     3
172
     1
178
     0
271
     2
272
     2
274
     3
278
    44
283
     0
284
     8
340
11
  0
ENDTAB
  0
TABLE
  2
BLOCK_RECORD
  5
1
330
0
100
AcDbSymbolTable
 70
    18
  0
BLOCK_RECORD
  5
1F
330
1
100
AcDbSymbolTableRecord
100
AcDbBlockTableRecord
  2
*Model_Space
340
22
  0
BLOCK_RECORD
  5
1B
330
1
100
AcDbSymbolTableRecord
100
AcDbBlockTableRecord
  2
*Paper_Space
340
1E
  0
BLOCK_RECORD
  5
23
330
1
100
AcDbSymbolTableRecord
100
AcDbBlockTableRecord
  2
*Paper_Space0
340
26
  0
BLOCK_RECORD
  5
A7
330
1
100
AcDbSymbolTableRecord
100
AcDbBlockTableRecord
  2
SW_CENTERMARKSYMBOL_0
340
0
102
{BLKREFS
331
B2
102
}
  0
BLOCK_RECORD
  5
B3
330
1
100
AcDbSymbolTableRecord
100
AcDbBlockTableRecord
  2
SW_CENTERMARKSYMBOL_1
340
0
102
{BLKREFS
331
BE
102
}
  0
BLOCK_RECORD
  5
BF
330
1
100
AcDbSymbolTableRecord
100
AcDbBlockTableRecord
  2
SW_CENTERMARKSYMBOL_2
340
0
102
{BLKREFS
331
CA
102
}
  0
BLOCK_RECORD
  5
CB
330
1
100
AcDbSymbolTableRecord
100
AcDbBlockTableRecord
  2
SW_CENTERMARKSYMBOL_3
340
0
102
{BLKREFS
331
D6
102
}
  0
BLOCK_RECORD
  5
D7
330
1
100
AcDbSymbolTableRecord
100
AcDbBlockTableRecord
  2
SW_CENTERMARKSYMBOL_4
340
0
102
{BLKREFS
331
E2
102
}
  0
BLOCK_RECORD
  5
E3
330
1
100
AcDbSymbolTableRecord
100
AcDbBlockTableRecord
  2
SW_CENTERMARKSYMBOL_5
340
0
102
{BLKREFS
331
EE
102
}
  0
BLOCK_RECORD
  5
EF
330
1
100
AcDbSymbolTableRecord
100
AcDbBlockTableRecord
  2
SW_CENTERMARKSYMBOL_6
340
0
102
{BLKREFS
331
FA
102
}
  0
BLOCK_RECORD
  5
FB
330
1
100
AcDbSymbolTableRecord
100
AcDbBlockTableRecord
  2
SW_CENTERMARKSYMBOL_7
340
0
102
{BLKREFS
331
106
102
}
  0
BLOCK_RECORD
  5
107
330
1
100
AcDbSymbolTableRecord
100
AcDbBlockTableRecord
  2
SW_CENTERMARKSYMBOL_8
340
0
102
{BLKREFS
331
112
102
}
  0
BLOCK_RECORD
  5
113
330
1
100
AcDbSymbolTableRecord
100
AcDbBlockTableRecord
  2
SW_CENTERMARKSYMBOL_9
340
0
102
{BLKREFS
331
11E
102
}
  0
BLOCK_RECORD
  5
11F
330
1
100
AcDbSymbolTableRecord
100
AcDbBlockTableRecord
  2
SW_CENTERMARKSYMBOL_10
340
0
102
{BLKREFS
331
12A
102
}
  0
BLOCK_RECORD
  5
12B
330
1
100
AcDbSymbolTableRecord
100
AcDbBlockTableRecord
  2
SW_CENTERMARKSYMBOL_11
340
0
102
{BLKREFS
331
136
102
}
  0
BLOCK_RECORD
  5
137
330
1
100
AcDbSymbolTableRecord
100
AcDbBlockTableRecord
  2
SW_CENTERMARKSYMBOL_12
340
0
102
{BLKREFS
331
142
102
}
  0
BLOCK_RECORD
  5
143
330
1
100
AcDbSymbolTableRecord
100
AcDbBlockTableRecord
  2
SW_CENTERMARKSYMBOL_13
340
0
102
{BLKREFS
331
14E
102
}
  0
BLOCK_RECORD
  5
14F
330
1
100
AcDbSymbolTableRecord
100
AcDbBlockTableRecord
  2
SW_CENTERMARKSYMBOL_14
340
0
102
{BLKREFS
331
15A
102
}
  0
BLOCK_RECORD
  5
15B
330
1
100
AcDbSymbolTableRecord
100
AcDbBlockTableRecord
  2
SW_CENTERMARKSYMBOL_15
340
0
102
{BLKREFS
331
166
102
}
  0
BLOCK_RECORD
  5
167
330
1
100
AcDbSymbolTableRecord
100
AcDbBlockTableRecord
  2
SW_CENTERMARKSYMBOL_16
340
0
102
{BLKREFS
331
172
102
}
  0
ENDTAB
  0
ENDSEC
  0
SECTION
  2
BLOCKS
  0
BLOCK
  5
20
330
1F
100
AcDbEntity
  8
0
100
AcDbBlockBegin
  2
*Model_Space
 70
     0
 10
0.0
 20
0.0
 30
0.0
  3
*Model_Space
  1

  0
ENDBLK
  5
21
330
1F
100
AcDbEntity
  8
0
100
AcDbBlockEnd
  0
BLOCK
  5
1C
330
1B
100
AcDbEntity
 67
     1
  8
0
100
AcDbBlockBegin
  2
*Paper_Space
 70
     0
 10
0.0
 20
0.0
 30
0.0
  3
*Paper_Space
  1

  0
ENDBLK
  5
1D
330
1B
100
AcDbEntity
 67
     1
  8
0
100
AcDbBlockEnd
  0
BLOCK
  5
24
330
23
100
AcDbEntity
  8
0
100
AcDbBlockBegin
  2
*Paper_Space0
 70
     0
 10
0.0
 20
0.0
 30
0.0
  3
*Paper_Space0
  1

  0
ENDBLK
  5
25
330
23
100
AcDbEntity
  8
0
100
AcDbBlockEnd
  0
BLOCK
  5
A8
330
A7
100
AcDbEntity
  8
0
100
AcDbBlockBegin
  2
SW_CENTERMARKSYMBOL_0
 70
     0
 10
0.0
 20
0.0
 30
0.0
  3
SW_CENTERMARKSYMBOL_0
  1

  0
LINE
  5
AA
330
A7
100
AcDbEntity
  8
FORMAT
 62
     0
100
AcDbLine
 10
0.0
 20
0.0
 30
0.0
 11
0.0
 21
2.5
 31
0.0
  0
LINE
  5
AB
330
A7
100
AcDbEntity
  8
FORMAT
 62
     0
100
AcDbLine
 10
0.0
 20
0.0
 30
0.0
 11
-2.5
 21
0.0
 31
0.0
  0
LINE
  5
AC
330
A7
100
AcDbEntity
  8
FORMAT
 62
     0
100
AcDbLine
 10
0.0
 20
0.0
 30
0.0
 11
0.0
 21
-2.5
 31
0.0
  0
LINE
  5
AD
330
A7
100
AcDbEntity
  8
FORMAT
 62
     0
100
AcDbLine
 10
0.0
 20
0.0
 30
0.0
 11
2.5
 21
0.0
 31
0.0
  0
LINE
  5
AE
330
A7
100
AcDbEntity
  8
FORMAT
 62
     0
100
AcDbLine
 10
0.0
 20
5.0
 30
0.0
 11
0.0
 21
259.5
 31
0.0
  0
LINE
  5
AF
330
A7
100
AcDbEntity
  8
FORMAT
 62
     0
100
AcDbLine
 10
-5.0
 20
0.0
 30
0.0
 11
-259.5
 21
0.0
 31
0.0
  0
LINE
  5
B0
330
A7
100
AcDbEntity
  8
FORMAT
 62
     0
100
AcDbLine
 10
0.0
 20
-5.0
 30
0.0
 11
0.0
 21
-259.5
 31
0.0
  0
LINE
  5
B1
330
A7
100
AcDbEntity
  8
FORMAT
 62
     0
100
AcDbLine
 10
5.0
 20
0.0
 30
0.0
 11
259.5
 21
0.0
 31
0.0
  0
ENDBLK
  5
A9
330
A7
100
AcDbEntity
  8
0
100
AcDbBlockEnd
  0
BLOCK
  5
B4
330
B3
100
AcDbEntity
  8
0
100
AcDbBlockBegin
  2
SW_CENTERMARKSYMBOL_1
 70
     0
 10
0.0
 20
0.0
 30
0.0
  3
SW_CENTERMARKSYMBOL_1
  1

  0
LINE
  5
B6
330
B3
100
AcDbEntity
  8
FORMAT
 62
     0
100
AcDbLine
 10
0.0
 20
0.0
 30
0.0
 11
0.0
 21
2.5
 31
0.0
  0
LINE
  5
B7
330
B3
100
AcDbEntity
  8
FORMAT
 62
     0
100
AcDbLine
 10
0.0
 20
0.0
 30
0.0
 11
-2.5
 21
0.0
 31
0.0
  0
LINE
  5
B8
330
B3
100
AcDbEntity
  8
FORMAT
 62
     0
100
AcDbLine
 10
0.0
 20
0.0
 30
0.0
 11
0.0
 21
-2.5
 31
0.0
  0
LINE
  5
B9
330
B3
100
AcDbEntity
  8
FORMAT
 62
     0
100
AcDbLine
 10
0.0
 20
0.0
 30
0.0
 11
2.5
 21
0.0
 31
0.0
  0
LINE
  5
BA
330
B3
100
AcDbEntity
  8
FORMAT
 62
     0
100
AcDbLine
 10
0.0
 20
5.0
 30
0.0
 11
0.0
 21
13.5
 31
0.0
  0
LINE
  5
BB
330
B3
100
AcDbEntity
  8
FORMAT
 62
     0
100
AcDbLine
 10
-5.0
 20
0.0
 30
0.0
 11
-13.5
 21
0.0
 31
0.0
  0
LINE
  5
BC
330
B3
100
AcDbEntity
  8
FORMAT
 62
     0
100
AcDbLine
 10
0.0
 20
-5.0
 30
0.0
 11
0.0
 21
-13.5
 31
0.0
  0
LINE
  5
BD
330
B3
100
AcDbEntity
  8
FORMAT
 62
     0
100
AcDbLine
 10
5.0
 20
0.0
 30
0.0
 11
13.5
 21
0.0
 31
0.0
  0
ENDBLK
  5
B5
330
B3
100
AcDbEntity
  8
0
100
AcDbBlockEnd
  0
BLOCK
  5
C0
330
BF
100
AcDbEntity
  8
0
100
AcDbBlockBegin
  2
SW_CENTERMARKSYMBOL_2
 70
     0
 10
0.0
 20
0.0
 30
0.0
  3
SW_CENTERMARKSYMBOL_2
  1

  0
LINE
  5
C2
330
BF
100
AcDbEntity
  8
FORMAT
 62
     0
100
AcDbLine
 10
0.0
 20
0.0
 30
0.0
 11
0.0
 21
2.5
 31
0.0
  0
LINE
  5
C3
330
BF
100
AcDbEntity
  8
FORMAT
 62
     0
100
AcDbLine
 10
0.0
 20
0.0
 30
0.0
 11
-2.5
 21
0.0
 31
0.0
  0
LINE
  5
C4
330
BF
100
AcDbEntity
  8
FORMAT
 62
     0
100
AcDbLine
 10
0.0
 20
0.0
 30
0.0
 11
0.0
 21
-2.5
 31
0.0
  0
LINE
  5
C5
330
BF
100
AcDbEntity
  8
FORMAT
 62
     0
100
AcDbLine
 10
0.0
 20
0.0
 30
0.0
 11
2.5
 21
0.0
 31
0.0
  0
LINE
  5
C6
330
BF
100
AcDbEntity
  8
FORMAT
 62
     0
100
AcDbLine
 10
0.0
 20
5.0
 30
0.0
 11
0.0
 21
13.5
 31
0.0
  0
LINE
  5
C7
330
BF
100
AcDbEntity
  8
FORMAT
 62
     0
100
AcDbLine
 10
-5.0
 20
0.0
 30
0.0
 11
-13.5
 21
0.0
 31
0.0
  0
LINE
  5
C8
330
BF
100
AcDbEntity
  8
FORMAT
 62
     0
100
AcDbLine
 10
0.0
 20
-5.0
 30
0.0
 11
0.0
 21
-13.5
 31
0.0
  0
LINE
  5
C9
330
BF
100
AcDbEntity
  8
FORMAT
 62
     0
100
AcDbLine
 10
5.0
 20
0.0
 30
0.0
 11
14.1255686203
 21
0.0
 31
0.0
  0
ENDBLK
  5
C1
330
BF
100
AcDbEntity
  8
0
100
AcDbBlockEnd
  0
BLOCK
  5
CC
330
CB
100
AcDbEntity
  8
0
100
AcDbBlockBegin
  2
SW_CENTERMARKSYMBOL_3
 70
     0
 10
0.0
 20
0.0
 30
0.0
  3
SW_CENTERMARKSYMBOL_3
  1

  0
LINE
  5
CE
330
CB
100
AcDbEntity
  8
FORMAT
 62
     0
100
AcDbLine
 10
0.0
 20
0.0
 30
0.0
 11
0.0
 21
2.5
 31
0.0
  0
LINE
  5
CF
330
CB
100
AcDbEntity
  8
FORMAT
 62
     0
100
AcDbLine
 10
0.0
 20
0.0
 30
0.0
 11
-2.5
 21
0.0
 31
0.0
  0
LINE
  5
D0
330
CB
100
AcDbEntity
  8
FORMAT
 62
     0
100
AcDbLine
 10
0.0
 20
0.0
 30
0.0
 11
0.0
 21
-2.5
 31
0.0
  0
LINE
  5
D1
330
CB
100
AcDbEntity
  8
FORMAT
 62
     0
100
AcDbLine
 10
0.0
 20
0.0
 30
0.0
 11
2.5
 21
0.0
 31
0.0
  0
LINE
  5
D2
330
CB
100
AcDbEntity
  8
FORMAT
 62
     0
100
AcDbLine
 10
0.0
 20
5.0
 30
0.0
 11
0.0
 21
13.5
 31
0.0
  0
LINE
  5
D3
330
CB
100
AcDbEntity
  8
FORMAT
 62
     0
100
AcDbLine
 10
-5.0
 20
0.0
 30
0.0
 11
-13.5
 21
0.0
 31
0.0
  0
LINE
  5
D4
330
CB
100
AcDbEntity
  8
FORMAT
 62
     0
100
AcDbLine
 10
0.0
 20
-5.0
 30
0.0
 11
0.0
 21
-13.5
 31
0.0
  0
LINE
  5
D5
330
CB
100
AcDbEntity
  8
FORMAT
 62
     0
100
AcDbLine
 10
5.0
 20
0.0
 30
0.0
 11
13.5
 21
0.0
 31
0.0
  0
ENDBLK
  5
CD
330
CB
100
AcDbEntity
  8
0
100
AcDbBlockEnd
  0
BLOCK
  5
D8
330
D7
100
AcDbEntity
  8
0
100
AcDbBlockBegin
  2
SW_CENTERMARKSYMBOL_4
 70
     0
 10
0.0
 20
0.0
 30
0.0
  3
SW_CENTERMARKSYMBOL_4
  1

  0
LINE
  5
DA
330
D7
100
AcDbEntity
  8
FORMAT
 62
     0
100
AcDbLine
 10
0.0
 20
0.0
 30
0.0
 11
0.0
 21
2.5
 31
0.0
  0
LINE
  5
DB
330
D7
100
AcDbEntity
  8
FORMAT
 62
     0
100
AcDbLine
 10
0.0
 20
0.0
 30
0.0
 11
-2.5
 21
0.0
 31
0.0
  0
LINE
  5
DC
330
D7
100
AcDbEntity
  8
FORMAT
 62
     0
100
AcDbLine
 10
0.0
 20
0.0
 30
0.0
 11
0.0
 21
-2.5
 31
0.0
  0
LINE
  5
DD
330
D7
100
AcDbEntity
  8
FORMAT
 62
     0
100
AcDbLine
 10
0.0
 20
0.0
 30
0.0
 11
2.5
 21
0.0
 31
0.0
  0
LINE
  5
DE
330
D7
100
AcDbEntity
  8
FORMAT
 62
     0
100
AcDbLine
 10
0.0
 20
5.0
 30
0.0
 11
0.0
 21
13.5
 31
0.0
  0
LINE
  5
DF
330
D7
100
AcDbEntity
  8
FORMAT
 62
     0
100
AcDbLine
 10
-5.0
 20
0.0
 30
0.0
 11
-13.5
 21
0.0
 31
0.0
  0
LINE
  5
E0
330
D7
100
AcDbEntity
  8
FORMAT
 62
     0
100
AcDbLine
 10
0.0
 20
-5.0
 30
0.0
 11
0.0
 21
-13.5
 31
0.0
  0
LINE
  5
E1
330
D7
100
AcDbEntity
  8
FORMAT
 62
     0
100
AcDbLine
 10
5.0
 20
0.0
 30
0.0
 11
13.5
 21
0.0
 31
0.0
  0
ENDBLK
  5
D9
330
D7
100
AcDbEntity
  8
0
100
AcDbBlockEnd
  0
BLOCK
  5
E4
330
E3
100
AcDbEntity
  8
0
100
AcDbBlockBegin
  2
SW_CENTERMARKSYMBOL_5
 70
     0
 10
0.0
 20
0.0
 30
0.0
  3
SW_CENTERMARKSYMBOL_5
  1

  0
LINE
  5
E6
330
E3
100
AcDbEntity
  8
FORMAT
 62
     0
100
AcDbLine
 10
0.0
 20
0.0
 30
0.0
 11
0.0
 21
2.5
 31
0.0
  0
LINE
  5
E7
330
E3
100
AcDbEntity
  8
FORMAT
 62
     0
100
AcDbLine
 10
0.0
 20
0.0
 30
0.0
 11
-2.5
 21
0.0
 31
0.0
  0
LINE
  5
E8
330
E3
100
AcDbEntity
  8
FORMAT
 62
     0
100
AcDbLine
 10
0.0
 20
0.0
 30
0.0
 11
0.0
 21
-2.5
 31
0.0
  0
LINE
  5
E9
330
E3
100
AcDbEntity
  8
FORMAT
 62
     0
100
AcDbLine
 10
0.0
 20
0.0
 30
0.0
 11
2.5
 21
0.0
 31
0.0
  0
LINE
  5
EA
330
E3
100
AcDbEntity
  8
FORMAT
 62
     0
100
AcDbLine
 10
0.0
 20
5.0
 30
0.0
 11
0.0
 21
14.5
 31
0.0
  0
LINE
  5
EB
330
E3
100
AcDbEntity
  8
FORMAT
 62
     0
100
AcDbLine
 10
-5.0
 20
0.0
 30
0.0
 11
-14.5
 21
0.0
 31
0.0
  0
LINE
  5
EC
330
E3
100
AcDbEntity
  8
FORMAT
 62
     0
100
AcDbLine
 10
0.0
 20
-5.0
 30
0.0
 11
0.0
 21
-14.5
 31
0.0
  0
LINE
  5
ED
330
E3
100
AcDbEntity
  8
FORMAT
 62
     0
100
AcDbLine
 10
5.0
 20
0.0
 30
0.0
 11
14.5
 21
0.0
 31
0.0
  0
ENDBLK
  5
E5
330
E3
100
AcDbEntity
  8
0
100
AcDbBlockEnd
  0
BLOCK
  5
F0
330
EF
100
AcDbEntity
  8
0
100
AcDbBlockBegin
  2
SW_CENTERMARKSYMBOL_6
 70
     0
 10
0.0
 20
0.0
 30
0.0
  3
SW_CENTERMARKSYMBOL_6
  1

  0
LINE
  5
F2
330
EF
100
AcDbEntity
  8
FORMAT
 62
     0
100
AcDbLine
 10
0.0
 20
0.0
 30
0.0
 11
0.0
 21
2.5
 31
0.0
  0
LINE
  5
F3
330
EF
100
AcDbEntity
  8
FORMAT
 62
     0
100
AcDbLine
 10
0.0
 20
0.0
 30
0.0
 11
-2.5
 21
0.0
 31
0.0
  0
LINE
  5
F4
330
EF
100
AcDbEntity
  8
FORMAT
 62
     0
100
AcDbLine
 10
0.0
 20
0.0
 30
0.0
 11
0.0
 21
-2.5
 31
0.0
  0
LINE
  5
F5
330
EF
100
AcDbEntity
  8
FORMAT
 62
     0
100
AcDbLine
 10
0.0
 20
0.0
 30
0.0
 11
2.5
 21
0.0
 31
0.0
  0
LINE
  5
F6
330
EF
100
AcDbEntity
  8
FORMAT
 62
     0
100
AcDbLine
 10
0.0
 20
5.0
 30
0.0
 11
0.0
 21
14.5
 31
0.0
  0
LINE
  5
F7
330
EF
100
AcDbEntity
  8
FORMAT
 62
     0
100
AcDbLine
 10
-5.0
 20
0.0
 30
0.0
 11
-14.5
 21
0.0
 31
0.0
  0
LINE
  5
F8
330
EF
100
AcDbEntity
  8
FORMAT
 62
     0
100
AcDbLine
 10
0.0
 20
-5.0
 30
0.0
 11
0.0
 21
-14.5
 31
0.0
  0
LINE
  5
F9
330
EF
100
AcDbEntity
  8
FORMAT
 62
     0
100
AcDbLine
 10
5.0
 20
0.0
 30
0.0
 11
14.5
 21
0.0
 31
0.0
  0
ENDBLK
  5
F1
330
EF
100
AcDbEntity
  8
0
100
AcDbBlockEnd
  0
BLOCK
  5
FC
330
FB
100
AcDbEntity
  8
0
100
AcDbBlockBegin
  2
SW_CENTERMARKSYMBOL_7
 70
     0
 10
0.0
 20
0.0
 30
0.0
  3
SW_CENTERMARKSYMBOL_7
  1

  0
LINE
  5
FE
330
FB
100
AcDbEntity
  8
FORMAT
 62
     0
100
AcDbLine
 10
0.0
 20
0.0
 30
0.0
 11
0.0
 21
2.5
 31
0.0
  0
LINE
  5
FF
330
FB
100
AcDbEntity
  8
FORMAT
 62
     0
100
AcDbLine
 10
0.0
 20
0.0
 30
0.0
 11
-2.5
 21
0.0
 31
0.0
  0
LINE
  5
100
330
FB
100
AcDbEntity
  8
FORMAT
 62
     0
100
AcDbLine
 10
0.0
 20
0.0
 30
0.0
 11
0.0
 21
-2.5
 31
0.0
  0
LINE
  5
101
330
FB
100
AcDbEntity
  8
FORMAT
 62
     0
100
AcDbLine
 10
0.0
 20
0.0
 30
0.0
 11
2.5
 21
0.0
 31
0.0
  0
LINE
  5
102
330
FB
100
AcDbEntity
  8
FORMAT
 62
     0
100
AcDbLine
 10
0.0
 20
5.0
 30
0.0
 11
0.0
 21
14.5
 31
0.0
  0
LINE
  5
103
330
FB
100
AcDbEntity
  8
FORMAT
 62
     0
100
AcDbLine
 10
-5.0
 20
0.0
 30
0.0
 11
-14.5
 21
0.0
 31
0.0
  0
LINE
  5
104
330
FB
100
AcDbEntity
  8
FORMAT
 62
     0
100
AcDbLine
 10
0.0
 20
-5.0
 30
0.0
 11
0.0
 21
-14.5
 31
0.0
  0
LINE
  5
105
330
FB
100
AcDbEntity
  8
FORMAT
 62
     0
100
AcDbLine
 10
5.0
 20
0.0
 30
0.0
 11
14.5
 21
0.0
 31
0.0
  0
ENDBLK
  5
FD
330
FB
100
AcDbEntity
  8
0
100
AcDbBlockEnd
  0
BLOCK
  5
108
330
107
100
AcDbEntity
  8
0
100
AcDbBlockBegin
  2
SW_CENTERMARKSYMBOL_8
 70
     0
 10
0.0
 20
0.0
 30
0.0
  3
SW_CENTERMARKSYMBOL_8
  1

  0
LINE
  5
10A
330
107
100
AcDbEntity
  8
FORMAT
 62
     0
100
AcDbLine
 10
0.0
 20
0.0
 30
0.0
 11
0.0
 21
2.5
 31
0.0
  0
LINE
  5
10B
330
107
100
AcDbEntity
  8
FORMAT
 62
     0
100
AcDbLine
 10
0.0
 20
0.0
 30
0.0
 11
-2.5
 21
0.0
 31
0.0
  0
LINE
  5
10C
330
107
100
AcDbEntity
  8
FORMAT
 62
     0
100
AcDbLine
 10
0.0
 20
0.0
 30
0.0
 11
0.0
 21
-2.5
 31
0.0
  0
LINE
  5
10D
330
107
100
AcDbEntity
  8
FORMAT
 62
     0
100
AcDbLine
 10
0.0
 20
0.0
 30
0.0
 11
2.5
 21
0.0
 31
0.0
  0
LINE
  5
10E
330
107
100
AcDbEntity
  8
FORMAT
 62
     0
100
AcDbLine
 10
0.0
 20
5.0
 30
0.0
 11
0.0
 21
14.5
 31
0.0
  0
LINE
  5
10F
330
107
100
AcDbEntity
  8
FORMAT
 62
     0
100
AcDbLine
 10
-5.0
 20
0.0
 30
0.0
 11
-14.5
 21
0.0
 31
0.0
  0
LINE
  5
110
330
107
100
AcDbEntity
  8
FORMAT
 62
     0
100
AcDbLine
 10
0.0
 20
-5.0
 30
0.0
 11
0.0
 21
-14.5
 31
0.0
  0
LINE
  5
111
330
107
100
AcDbEntity
  8
FORMAT
 62
     0
100
AcDbLine
 10
5.0
 20
0.0
 30
0.0
 11
14.5
 21
0.0
 31
0.0
  0
ENDBLK
  5
109
330
107
100
AcDbEntity
  8
0
100
AcDbBlockEnd
  0
BLOCK
  5
114
330
113
100
AcDbEntity
  8
0
100
AcDbBlockBegin
  2
SW_CENTERMARKSYMBOL_9
 70
     0
 10
0.0
 20
0.0
 30
0.0
  3
SW_CENTERMARKSYMBOL_9
  1

  0
LINE
  5
116
330
113
100
AcDbEntity
  8
FORMAT
 62
     0
100
AcDbLine
 10
0.0
 20
0.0
 30
0.0
 11
0.0
 21
2.5
 31
0.0
  0
LINE
  5
117
330
113
100
AcDbEntity
  8
FORMAT
 62
     0
100
AcDbLine
 10
0.0
 20
0.0
 30
0.0
 11
-2.5
 21
0.0
 31
0.0
  0
LINE
  5
118
330
113
100
AcDbEntity
  8
FORMAT
 62
     0
100
AcDbLine
 10
0.0
 20
0.0
 30
0.0
 11
0.0
 21
-2.5
 31
0.0
  0
LINE
  5
119
330
113
100
AcDbEntity
  8
FORMAT
 62
     0
100
AcDbLine
 10
0.0
 20
0.0
 30
0.0
 11
2.5
 21
0.0
 31
0.0
  0
LINE
  5
11A
330
113
100
AcDbEntity
  8
FORMAT
 62
     0
100
AcDbLine
 10
0.0
 20
5.0
 30
0.0
 11
0.0
 21
14.5
 31
0.0
  0
LINE
  5
11B
330
113
100
AcDbEntity
  8
FORMAT
 62
     0
100
AcDbLine
 10
-5.0
 20
0.0
 30
0.0
 11
-14.5
 21
0.0
 31
0.0
  0
LINE
  5
11C
330
113
100
AcDbEntity
  8
FORMAT
 62
     0
100
AcDbLine
 10
0.0
 20
-5.0
 30
0.0
 11
0.0
 21
-14.5
 31
0.0
  0
LINE
  5
11D
330
113
100
AcDbEntity
  8
FORMAT
 62
     0
100
AcDbLine
 10
5.0
 20
0.0
 30
0.0
 11
14.5
 21
0.0
 31
0.0
  0
ENDBLK
  5
115
330
113
100
AcDbEntity
  8
0
100
AcDbBlockEnd
  0
BLOCK
  5
120
330
11F
100
AcDbEntity
  8
0
100
AcDbBlockBegin
  2
SW_CENTERMARKSYMBOL_10
 70
     0
 10
0.0
 20
0.0
 30
0.0
  3
SW_CENTERMARKSYMBOL_10
  1

  0
LINE
  5
122
330
11F
100
AcDbEntity
  8
FORMAT
 62
     0
100
AcDbLine
 10
0.0
 20
0.0
 30
0.0
 11
0.0
 21
2.5
 31
0.0
  0
LINE
  5
123
330
11F
100
AcDbEntity
  8
FORMAT
 62
     0
100
AcDbLine
 10
0.0
 20
0.0
 30
0.0
 11
-2.5
 21
0.0
 31
0.0
  0
LINE
  5
124
330
11F
100
AcDbEntity
  8
FORMAT
 62
     0
100
AcDbLine
 10
0.0
 20
0.0
 30
0.0
 11
0.0
 21
-2.5
 31
0.0
  0
LINE
  5
125
330
11F
100
AcDbEntity
  8
FORMAT
 62
     0
100
AcDbLine
 10
0.0
 20
0.0
 30
0.0
 11
2.5
 21
0.0
 31
0.0
  0
LINE
  5
126
330
11F
100
AcDbEntity
  8
FORMAT
 62
     0
100
AcDbLine
 10
0.0
 20
5.0
 30
0.0
 11
0.0
 21
14.5
 31
0.0
  0
LINE
  5
127
330
11F
100
AcDbEntity
  8
FORMAT
 62
     0
100
AcDbLine
 10
-5.0
 20
0.0
 30
0.0
 11
-14.5
 21
0.0
 31
0.0
  0
LINE
  5
128
330
11F
100
AcDbEntity
  8
FORMAT
 62
     0
100
AcDbLine
 10
0.0
 20
-5.0
 30
0.0
 11
0.0
 21
-14.5
 31
0.0
  0
LINE
  5
129
330
11F
100
AcDbEntity
  8
FORMAT
 62
     0
100
AcDbLine
 10
5.0
 20
0.0
 30
0.0
 11
14.5
 21
0.0
 31
0.0
  0
ENDBLK
  5
121
330
11F
100
AcDbEntity
  8
0
100
AcDbBlockEnd
  0
BLOCK
  5
12C
330
12B
100
AcDbEntity
  8
0
100
AcDbBlockBegin
  2
SW_CENTERMARKSYMBOL_11
 70
     0
 10
0.0
 20
0.0
 30
0.0
  3
SW_CENTERMARKSYMBOL_11
  1

  0
LINE
  5
12E
330
12B
100
AcDbEntity
  8
FORMAT
 62
     0
100
AcDbLine
 10
0.0
 20
0.0
 30
0.0
 11
0.0
 21
2.5
 31
0.0
  0
LINE
  5
12F
330
12B
100
AcDbEntity
  8
FORMAT
 62
     0
100
AcDbLine
 10
0.0
 20
0.0
 30
0.0
 11
-2.5
 21
0.0
 31
0.0
  0
LINE
  5
130
330
12B
100
AcDbEntity
  8
FORMAT
 62
     0
100
AcDbLine
 10
0.0
 20
0.0
 30
0.0
 11
0.0
 21
-2.5
 31
0.0
  0
LINE
  5
131
330
12B
100
AcDbEntity
  8
FORMAT
 62
     0
100
AcDbLine
 10
0.0
 20
0.0
 30
0.0
 11
2.5
 21
0.0
 31
0.0
  0
LINE
  5
132
330
12B
100
AcDbEntity
  8
FORMAT
 62
     0
100
AcDbLine
 10
0.0
 20
5.0
 30
0.0
 11
0.0
 21
14.5
 31
0.0
  0
LINE
  5
133
330
12B
100
AcDbEntity
  8
FORMAT
 62
     0
100
AcDbLine
 10
-5.0
 20
0.0
 30
0.0
 11
-14.5
 21
0.0
 31
0.0
  0
LINE
  5
134
330
12B
100
AcDbEntity
  8
FORMAT
 62
     0
100
AcDbLine
 10
0.0
 20
-5.0
 30
0.0
 11
0.0
 21
-14.5
 31
0.0
  0
LINE
  5
135
330
12B
100
AcDbEntity
  8
FORMAT
 62
     0
100
AcDbLine
 10
5.0
 20
0.0
 30
0.0
 11
14.5
 21
0.0
 31
0.0
  0
ENDBLK
  5
12D
330
12B
100
AcDbEntity
  8
0
100
AcDbBlockEnd
  0
BLOCK
  5
138
330
137
100
AcDbEntity
  8
0
100
AcDbBlockBegin
  2
SW_CENTERMARKSYMBOL_12
 70
     0
 10
0.0
 20
0.0
 30
0.0
  3
SW_CENTERMARKSYMBOL_12
  1

  0
LINE
  5
13A
330
137
100
AcDbEntity
  8
FORMAT
 62
     0
100
AcDbLine
 10
0.0
 20
0.0
 30
0.0
 11
0.0
 21
2.5
 31
0.0
  0
LINE
  5
13B
330
137
100
AcDbEntity
  8
FORMAT
 62
     0
100
AcDbLine
 10
0.0
 20
0.0
 30
0.0
 11
-2.5
 21
0.0
 31
0.0
  0
LINE
  5
13C
330
137
100
AcDbEntity
  8
FORMAT
 62
     0
100
AcDbLine
 10
0.0
 20
0.0
 30
0.0
 11
0.0
 21
-2.5
 31
0.0
  0
LINE
  5
13D
330
137
100
AcDbEntity
  8
FORMAT
 62
     0
100
AcDbLine
 10
0.0
 20
0.0
 30
0.0
 11
2.5
 21
0.0
 31
0.0
  0
LINE
  5
13E
330
137
100
AcDbEntity
  8
FORMAT
 62
     0
100
AcDbLine
 10
0.0
 20
5.0
 30
0.0
 11
0.0
 21
14.5
 31
0.0
  0
LINE
  5
13F
330
137
100
AcDbEntity
  8
FORMAT
 62
     0
100
AcDbLine
 10
-5.0
 20
0.0
 30
0.0
 11
-14.5
 21
0.0
 31
0.0
  0
LINE
  5
140
330
137
100
AcDbEntity
  8
FORMAT
 62
     0
100
AcDbLine
 10
0.0
 20
-5.0
 30
0.0
 11
0.0
 21
-14.5
 31
0.0
  0
LINE
  5
141
330
137
100
AcDbEntity
  8
FORMAT
 62
     0
100
AcDbLine
 10
5.0
 20
0.0
 30
0.0
 11
14.5
 21
0.0
 31
0.0
  0
ENDBLK
  5
139
330
137
100
AcDbEntity
  8
0
100
AcDbBlockEnd
  0
BLOCK
  5
144
330
143
100
AcDbEntity
  8
0
100
AcDbBlockBegin
  2
SW_CENTERMARKSYMBOL_13
 70
     0
 10
0.0
 20
0.0
 30
0.0
  3
SW_CENTERMARKSYMBOL_13
  1

  0
LINE
  5
146
330
143
100
AcDbEntity
  8
FORMAT
 62
     0
100
AcDbLine
 10
0.0
 20
0.0
 30
0.0
 11
0.0
 21
2.5
 31
0.0
  0
LINE
  5
147
330
143
100
AcDbEntity
  8
FORMAT
 62
     0
100
AcDbLine
 10
0.0
 20
0.0
 30
0.0
 11
-2.5
 21
0.0
 31
0.0
  0
LINE
  5
148
330
143
100
AcDbEntity
  8
FORMAT
 62
     0
100
AcDbLine
 10
0.0
 20
0.0
 30
0.0
 11
0.0
 21
-2.5
 31
0.0
  0
LINE
  5
149
330
143
100
AcDbEntity
  8
FORMAT
 62
     0
100
AcDbLine
 10
0.0
 20
0.0
 30
0.0
 11
2.5
 21
0.0
 31
0.0
  0
LINE
  5
14A
330
143
100
AcDbEntity
  8
FORMAT
 62
     0
100
AcDbLine
 10
0.0
 20
5.0
 30
0.0
 11
0.0
 21
14.5
 31
0.0
  0
LINE
  5
14B
330
143
100
AcDbEntity
  8
FORMAT
 62
     0
100
AcDbLine
 10
-5.0
 20
0.0
 30
0.0
 11
-14.5
 21
0.0
 31
0.0
  0
LINE
  5
14C
330
143
100
AcDbEntity
  8
FORMAT
 62
     0
100
AcDbLine
 10
0.0
 20
-5.0
 30
0.0
 11
0.0
 21
-14.5
 31
0.0
  0
LINE
  5
14D
330
143
100
AcDbEntity
  8
FORMAT
 62
     0
100
AcDbLine
 10
5.0
 20
0.0
 30
0.0
 11
14.5
 21
0.0
 31
0.0
  0
ENDBLK
  5
145
330
143
100
AcDbEntity
  8
0
100
AcDbBlockEnd
  0
BLOCK
  5
150
330
14F
100
AcDbEntity
  8
0
100
AcDbBlockBegin
  2
SW_CENTERMARKSYMBOL_14
 70
     0
 10
0.0
 20
0.0
 30
0.0
  3
SW_CENTERMARKSYMBOL_14
  1

  0
LINE
  5
152
330
14F
100
AcDbEntity
  8
FORMAT
 62
     0
100
AcDbLine
 10
0.0
 20
0.0
 30
0.0
 11
0.0
 21
2.5
 31
0.0
  0
LINE
  5
153
330
14F
100
AcDbEntity
  8
FORMAT
 62
     0
100
AcDbLine
 10
0.0
 20
0.0
 30
0.0
 11
-2.5
 21
0.0
 31
0.0
  0
LINE
  5
154
330
14F
100
AcDbEntity
  8
FORMAT
 62
     0
100
AcDbLine
 10
0.0
 20
0.0
 30
0.0
 11
0.0
 21
-2.5
 31
0.0
  0
LINE
  5
155
330
14F
100
AcDbEntity
  8
FORMAT
 62
     0
100
AcDbLine
 10
0.0
 20
0.0
 30
0.0
 11
2.5
 21
0.0
 31
0.0
  0
LINE
  5
156
330
14F
100
AcDbEntity
  8
FORMAT
 62
     0
100
AcDbLine
 10
0.0
 20
5.0
 30
0.0
 11
0.0
 21
14.5
 31
0.0
  0
LINE
  5
157
330
14F
100
AcDbEntity
  8
FORMAT
 62
     0
100
AcDbLine
 10
-5.0
 20
0.0
 30
0.0
 11
-14.5
 21
0.0
 31
0.0
  0
LINE
  5
158
330
14F
100
AcDbEntity
  8
FORMAT
 62
     0
100
AcDbLine
 10
0.0
 20
-5.0
 30
0.0
 11
0.0
 21
-14.5
 31
0.0
  0
LINE
  5
159
330
14F
100
AcDbEntity
  8
FORMAT
 62
     0
100
AcDbLine
 10
5.0
 20
0.0
 30
0.0
 11
14.5
 21
0.0
 31
0.0
  0
ENDBLK
  5
151
330
14F
100
AcDbEntity
  8
0
100
AcDbBlockEnd
  0
BLOCK
  5
15C
330
15B
100
AcDbEntity
  8
0
100
AcDbBlockBegin
  2
SW_CENTERMARKSYMBOL_15
 70
     0
 10
0.0
 20
0.0
 30
0.0
  3
SW_CENTERMARKSYMBOL_15
  1

  0
LINE
  5
15E
330
15B
100
AcDbEntity
  8
FORMAT
 62
     0
100
AcDbLine
 10
0.0
 20
0.0
 30
0.0
 11
0.0
 21
2.5
 31
0.0
  0
LINE
  5
15F
330
15B
100
AcDbEntity
  8
FORMAT
 62
     0
100
AcDbLine
 10
0.0
 20
0.0
 30
0.0
 11
-2.5
 21
0.0
 31
0.0
  0
LINE
  5
160
330
15B
100
AcDbEntity
  8
FORMAT
 62
     0
100
AcDbLine
 10
0.0
 20
0.0
 30
0.0
 11
0.0
 21
-2.5
 31
0.0
  0
LINE
  5
161
330
15B
100
AcDbEntity
  8
FORMAT
 62
     0
100
AcDbLine
 10
0.0
 20
0.0
 30
0.0
 11
2.5
 21
0.0
 31
0.0
  0
LINE
  5
162
330
15B
100
AcDbEntity
  8
FORMAT
 62
     0
100
AcDbLine
 10
0.0
 20
5.0
 30
0.0
 11
0.0
 21
14.5
 31
0.0
  0
LINE
  5
163
330
15B
100
AcDbEntity
  8
FORMAT
 62
     0
100
AcDbLine
 10
-5.0
 20
0.0
 30
0.0
 11
-14.5
 21
0.0
 31
0.0
  0
LINE
  5
164
330
15B
100
AcDbEntity
  8
FORMAT
 62
     0
100
AcDbLine
 10
0.0
 20
-5.0
 30
0.0
 11
0.0
 21
-14.5
 31
0.0
  0
LINE
  5
165
330
15B
100
AcDbEntity
  8
FORMAT
 62
     0
100
AcDbLine
 10
5.0
 20
0.0
 30
0.0
 11
14.5
 21
0.0
 31
0.0
  0
ENDBLK
  5
15D
330
15B
100
AcDbEntity
  8
0
100
AcDbBlockEnd
  0
BLOCK
  5
168
330
167
100
AcDbEntity
  8
0
100
AcDbBlockBegin
  2
SW_CENTERMARKSYMBOL_16
 70
     0
 10
0.0
 20
0.0
 30
0.0
  3
SW_CENTERMARKSYMBOL_16
  1

  0
LINE
  5
16A
330
167
100
AcDbEntity
  8
FORMAT
 62
     0
100
AcDbLine
 10
0.0
 20
0.0
 30
0.0
 11
0.0
 21
2.5
 31
0.0
  0
LINE
  5
16B
330
167
100
AcDbEntity
  8
FORMAT
 62
     0
100
AcDbLine
 10
0.0
 20
0.0
 30
0.0
 11
-2.5
 21
0.0
 31
0.0
  0
LINE
  5
16C
330
167
100
AcDbEntity
  8
FORMAT
 62
     0
100
AcDbLine
 10
0.0
 20
0.0
 30
0.0
 11
0.0
 21
-2.5
 31
0.0
  0
LINE
  5
16D
330
167
100
AcDbEntity
  8
FORMAT
 62
     0
100
AcDbLine
 10
0.0
 20
0.0
 30
0.0
 11
2.5
 21
0.0
 31
0.0
  0
LINE
  5
16E
330
167
100
AcDbEntity
  8
FORMAT
 62
     0
100
AcDbLine
 10
0.0
 20
5.0
 30
0.0
 11
0.0
 21
14.5
 31
0.0
  0
LINE
  5
16F
330
167
100
AcDbEntity
  8
FORMAT
 62
     0
100
AcDbLine
 10
-5.0
 20
0.0
 30
0.0
 11
-14.5
 21
0.0
 31
0.0
  0
LINE
  5
170
330
167
100
AcDbEntity
  8
FORMAT
 62
     0
100
AcDbLine
 10
0.0
 20
-5.0
 30
0.0
 11
0.0
 21
-14.5
 31
0.0
  0
LINE
  5
171
330
167
100
AcDbEntity
  8
FORMAT
 62
     0
100
AcDbLine
 10
5.0
 20
0.0
 30
0.0
 11
14.5
 21
0.0
 31
0.0
  0
ENDBLK
  5
169
330
167
100
AcDbEntity
  8
0
100
AcDbBlockEnd
  0
ENDSEC
  0
SECTION
  2
ENTITIES
  0
CIRCLE
  5
83
330
1F
100
AcDbEntity
  8
0
  6
Continuous
 62
     7
370
    25
100
AcDbCircle
 10
-27.5239658525
 20
278.3255555461
 30
0.0
 40
11.99999999999998
  0
CIRCLE
  5
84
330
1F
100
AcDbEntity
  8
0
  6
Continuous
 62
     7
370
    25
100
AcDbCircle
 10
-94.8894061796
 20
115.6909958732
 30
0.0
 40
12.0
  0
CIRCLE
  5
85
330
1F
100
AcDbEntity
  8
0
  6
Continuous
 62
     7
370
    25
100
AcDbCircle
 10
-27.5239658525
 20
-46.9435637997
 30
0.0
 40
12.00000000000001
  0
CIRCLE
  5
86
330
1F
100
AcDbEntity
  8
0
  6
Continuous
 62
     7
370
    25
100
AcDbCircle
 10
135.1105938204
 20
-114.3090041268
 30
0.0
 40
12.00000000000003
  0
CIRCLE
  5
87
330
1F
100
AcDbEntity
  8
0
  6
Continuous
 62
     7
370
    25
100
AcDbCircle
 10
297.7451534933
 20
-46.9435637997
 30
0.0
 40
12.0
  0
CIRCLE
  5
88
330
1F
100
AcDbEntity
  8
0
  6
Continuous
 62
     7
370
    25
100
AcDbCircle
 10
347.602886298
 20
203.7081853172
 30
0.0
 40
11.99999999999994
  0
CIRCLE
  5
89
330
1F
100
AcDbEntity
  8
0
  6
Continuous
 62
     7
370
    25
100
AcDbCircle
 10
223.1277832644
 20
328.1832883508
 30
0.0
 40
12.00000000000003
  0
CIRCLE
  5
8A
330
1F
100
AcDbEntity
  8
0
  6
Continuous
 62
     7
370
    25
100
AcDbCircle
 10
135.1105938204
 20
345.6909958732
 30
0.0
 40
12.0
  0
CIRCLE
  5
8B
330
1F
100
AcDbEntity
  8
0
  6
Continuous
 62
     7
370
    25
100
AcDbCircle
 10
135.1105938204
 20
115.6909958732
 30
0.0
 40
256.0
  0
CIRCLE
  5
8C
330
1F
100
AcDbEntity
  8
0
  6
Continuous
 62
     7
370
    25
100
AcDbCircle
 10
135.1105938204
 20
115.6909958732
 30
0.0
 40
189.0
  0
CIRCLE
  5
8D
330
1F
100
AcDbEntity
  8
0
  6
Continuous
 62
     7
370
    25
100
AcDbCircle
 10
365.1105938204
 20
115.6909958732
 30
0.0
 40
12.00000000000006
  0
CIRCLE
  5
8E
330
1F
100
AcDbEntity
  8
0
  6
Continuous
 62
     7
370
    25
100
AcDbCircle
 10
297.7451534933
 20
278.3255555461
 30
0.0
 40
12.0
  0
CIRCLE
  5
8F
330
1F
100
AcDbEntity
  8
0
  6
Continuous
 62
     7
370
    25
100
AcDbCircle
 10
347.602886298
 20
27.6738064292
 30
0.0
 40
11.99999999999994
  0
CIRCLE
  5
90
330
1F
100
AcDbEntity
  8
0
  6
Continuous
 62
     7
370
    25
100
AcDbCircle
 10
223.1277832644
 20
-96.8012966044
 30
0.0
 40
12.0
  0
CIRCLE
  5
91
330
1F
100
AcDbEntity
  8
0
  6
Continuous
 62
     7
370
    25
100
AcDbCircle
 10
47.0934043764
 20
-96.8012966044
 30
0.0
 40
11.99999999999999
  0
CIRCLE
  5
92
330
1F
100
AcDbEntity
  8
0
  6
Continuous
 62
     7
370
    25
100
AcDbCircle
 10
-77.3816986572
 20
27.6738064292
 30
0.0
 40
12.0
  0
CIRCLE
  5
93
330
1F
100
AcDbEntity
  8
0
  6
Continuous
 62
     7
370
    25
100
AcDbCircle
 10
-77.3816986572
 20
203.7081853172
 30
0.0
 40
11.99999999999999
  0
CIRCLE
  5
94
330
1F
100
AcDbEntity
  8
0
  6
Continuous
 62
     7
370
    25
100
AcDbCircle
 10
47.0934043764
 20
328.1832883508
 30
0.0
 40
12.00000000000001
  0
CIRCLE
  5
95
330
1F
100
AcDbEntity
  8
0
  6
Continuous
 62
     7
370
    25
100
AcDbCircle
 10
347.602886298
 20
27.6738064292
 30
0.0
 40
10.99999999999994
  0
CIRCLE
  5
96
330
1F
100
AcDbEntity
  8
0
  6
Continuous
 62
     7
370
    25
100
AcDbCircle
 10
297.7451534933
 20
278.3255555461
 30
0.0
 40
11.0
  0
CIRCLE
  5
97
330
1F
100
AcDbEntity
  8
0
  6
Continuous
 62
     7
370
    25
100
AcDbCircle
 10
365.1105938204
 20
115.6909958732
 30
0.0
 40
11.00000000000006
  0
CIRCLE
  5
98
330
1F
100
AcDbEntity
  8
0
  6
Continuous
 62
     7
370
    25
100
AcDbCircle
 10
135.1105938204
 20
115.6909958732
 30
0.0
 40
188.0
  0
CIRCLE
  5
99
330
1F
100
AcDbEntity
  8
0
  6
Continuous
 62
     7
370
    25
100
AcDbCircle
 10
135.1105938204
 20
115.6909958732
 30
0.0
 40
257.0
  0
CIRCLE
  5
9A
330
1F
100
AcDbEntity
  8
0
  6
Continuous
 62
     7
370
    25
100
AcDbCircle
 10
135.1105938204
 20
345.6909958732
 30
0.0
 40
11.0
  0
CIRCLE
  5
9B
330
1F
100
AcDbEntity
  8
0
  6
Continuous
 62
     7
370
    25
100
AcDbCircle
 10
223.1277832644
 20
328.1832883508
 30
0.0
 40
11.00000000000003
  0
CIRCLE
  5
9C
330
1F
100
AcDbEntity
  8
0
  6
Continuous
 62
     7
370
    25
100
AcDbCircle
 10
347.602886298
 20
203.7081853172
 30
0.0
 40
10.99999999999994
  0
CIRCLE
  5
9D
330
1F
100
AcDbEntity
  8
0
  6
Continuous
 62
     7
370
    25
100
AcDbCircle
 10
297.7451534933
 20
-46.9435637997
 30
0.0
 40
11.0
  0
CIRCLE
  5
9E
330
1F
100
AcDbEntity
  8
0
  6
Continuous
 62
     7
370
    25
100
AcDbCircle
 10
47.0934043764
 20
328.1832883508
 30
0.0
 40
11.00000000000001
  0
CIRCLE
  5
9F
330
1F
100
AcDbEntity
  8
0
  6
Continuous
 62
     7
370
    25
100
AcDbCircle
 10
-77.3816986572
 20
203.7081853172
 30
0.0
 40
10.99999999999999
  0
CIRCLE
  5
A0
330
1F
100
AcDbEntity
  8
0
  6
Continuous
 62
     7
370
    25
100
AcDbCircle
 10
-77.3816986572
 20
27.6738064292
 30
0.0
 40
11.0
  0
CIRCLE
  5
A1
330
1F
100
AcDbEntity
  8
0
  6
Continuous
 62
     7
370
    25
100
AcDbCircle
 10
47.0934043764
 20
-96.8012966044
 30
0.0
 40
10.99999999999999
  0
CIRCLE
  5
A2
330
1F
100
AcDbEntity
  8
0
  6
Continuous
 62
     7
370
    25
100
AcDbCircle
 10
223.1277832644
 20
-96.8012966044
 30
0.0
 40
11.0
  0
CIRCLE
  5
A3
330
1F
100
AcDbEntity
  8
0
  6
Continuous
 62
     7
370
    25
100
AcDbCircle
 10
-27.5239658525
 20
-46.9435637997
 30
0.0
 40
11.00000000000001
  0
CIRCLE
  5
A4
330
1F
100
AcDbEntity
  8
0
  6
Continuous
 62
     7
370
    25
100
AcDbCircle
 10
-94.8894061796
 20
115.6909958732
 30
0.0
 40
11.0
  0
CIRCLE
  5
A5
330
1F
100
AcDbEntity
  8
0
  6
Continuous
 62
     7
370
    25
100
AcDbCircle
 10
135.1105938204
 20
-114.3090041268
 30
0.0
 40
11.00000000000003
  0
CIRCLE
  5
A6
330
1F
100
AcDbEntity
  8
0
  6
Continuous
 62
     7
370
    25
100
AcDbCircle
 10
-27.5239658525
 20
278.3255555461
 30
0.0
 40
10.99999999999998
  0
INSERT
  5
B2
330
1F
100
AcDbEntity
  8
FORMAT
 62
     7
100
AcDbBlockReference
  2
SW_CENTERMARKSYMBOL_0
 10
135.1105938204
 20
115.6909958732
 30
0.0
  0
INSERT
  5
BE
330
1F
100
AcDbEntity
  8
FORMAT
 62
     7
100
AcDbBlockReference
  2
SW_CENTERMARKSYMBOL_1
 10
135.1105938204
 20
345.6909958732
 30
0.0
  0
INSERT
  5
CA
330
1F
100
AcDbEntity
  8
FORMAT
 62
     7
100
AcDbBlockReference
  2
SW_CENTERMARKSYMBOL_2
 10
223.1277832644
 20
328.1832883508
 30
0.0
  0
INSERT
  5
D6
330
1F
100
AcDbEntity
  8
FORMAT
 62
     7
100
AcDbBlockReference
  2
SW_CENTERMARKSYMBOL_3
 10
297.7451534933
 20
278.3255555461
 30
0.0
  0
INSERT
  5
E2
330
1F
100
AcDbEntity
  8
FORMAT
 62
     7
100
AcDbBlockReference
  2
SW_CENTERMARKSYMBOL_4
 10
347.602886298
 20
203.7081853172
 30
0.0
  0
INSERT
  5
EE
330
1F
100
AcDbEntity
  8
FORMAT
 62
     7
100
AcDbBlockReference
  2
SW_CENTERMARKSYMBOL_5
 10
47.0934043764
 20
328.1832883508
 30
0.0
  0
INSERT
  5
FA
330
1F
100
AcDbEntity
  8
FORMAT
 62
     7
100
AcDbBlockReference
  2
SW_CENTERMARKSYMBOL_6
 10
-27.5239658525
 20
278.3255555461
 30
0.0
  0
INSERT
  5
106
330
1F
100
AcDbEntity
  8
FORMAT
 62
     7
100
AcDbBlockReference
  2
SW_CENTERMARKSYMBOL_7
 10
-77.3816986572
 20
203.7081853172
 30
0.0
  0
INSERT
  5
112
330
1F
100
AcDbEntity
  8
FORMAT
 62
     7
100
AcDbBlockReference
  2
SW_CENTERMARKSYMBOL_8
 10
-94.8894061796
 20
115.6909958732
 30
0.0
  0
INSERT
  5
11E
330
1F
100
AcDbEntity
  8
FORMAT
 62
     7
100
AcDbBlockReference
  2
SW_CENTERMARKSYMBOL_9
 10
-77.3816986572
 20
27.6738064292
 30
0.0
  0
INSERT
  5
12A
330
1F
100
AcDbEntity
  8
FORMAT
 62
     7
100
AcDbBlockReference
  2
SW_CENTERMARKSYMBOL_10
 10
-27.5239658525
 20
-46.9435637997
 30
0.0
  0
INSERT
  5
136
330
1F
100
AcDbEntity
  8
FORMAT
 62
     7
100
AcDbBlockReference
  2
SW_CENTERMARKSYMBOL_11
 10
47.0934043764
 20
-96.8012966044
 30
0.0
  0
INSERT
  5
142
330
1F
100
AcDbEntity
  8
FORMAT
 62
     7
100
AcDbBlockReference
  2
SW_CENTERMARKSYMBOL_12
 10
135.1105938204
 20
-114.3090041268
 30
0.0
  0
INSERT
  5
14E
330
1F
100
AcDbEntity
  8
FORMAT
 62
     7
100
AcDbBlockReference
  2
SW_CENTERMARKSYMBOL_13
 10
223.1277832644
 20
-96.8012966044
 30
0.0
  0
INSERT
  5
15A
330
1F
100
AcDbEntity
  8
FORMAT
 62
     7
100
AcDbBlockReference
  2
SW_CENTERMARKSYMBOL_14
 10
297.7451534933
 20
-46.9435637997
 30
0.0
  0
INSERT
  5
166
330
1F
100
AcDbEntity
  8
FORMAT
 62
     7
100
AcDbBlockReference
  2
SW_CENTERMARKSYMBOL_15
 10
347.602886298
 20
27.6738064292
 30
0.0
  0
INSERT
  5
172
330
1F
100
AcDbEntity
  8
FORMAT
 62
     7
100
AcDbBlockReference
  2
SW_CENTERMARKSYMBOL_16
 10
365.1105938204
 20
115.6909958732
 30
0.0
  0
ARC
  5
173
330
1F
100
AcDbEntity
  8
0
  6
Continuous
 62
     7
370
    25
100
AcDbCircle
 10
-493.8146558444
 20
-140.3090041268
 30
0.0
 40
1.0
100
AcDbArc
 50
270.0
 51
0.0
  0
ARC
  5
174
330
1F
100
AcDbEntity
  8
0
  6
Continuous
 62
     7
370
    25
100
AcDbCircle
 10
-493.8146558444
 20
371.6909958732
 30
0.0
 40
1.0
100
AcDbArc
 50
0.0
 51
90.0
  0
LINE
  5
175
330
1F
100
AcDbEntity
  8
0
  6
Continuous
 62
     7
370
    25
100
AcDbLine
 10
-493.8146558444
 20
372.6909958732
 30
0.0
 11
-531.8146558444
 21
372.6909958732
 31
0.0
  0
LINE
  5
176
330
1F
100
AcDbEntity
  8
0
  6
Continuous
 62
     7
370
    25
100
AcDbLine
 10
-531.8146558444
 20
-141.3090041268
 30
0.0
 11
-493.8146558444
 21
-141.3090041268
 31
0.0
  0
ARC
  5
177
330
1F
100
AcDbEntity
  8
0
  6
Continuous
 62
     7
370
    25
100
AcDbCircle
 10
-531.8146558444
 20
-140.3090041268
 30
0.0
 40
1.0
100
AcDbArc
 50
180.0
 51
270.0
  0
ARC
  5
178
330
1F
100
AcDbEntity
  8
0
  6
Continuous
 62
     7
370
    25
100
AcDbCircle
 10
-531.8146558444
 20
371.6909958732
 30
0.0
 40
1.0
100
AcDbArc
 50
90.0
 51
180.0
  0
LINE
  5
179
330
1F
100
AcDbEntity
  8
0
  6
Continuous
 62
     7
370
    25
100
AcDbLine
 10
-492.8146558444
 20
115.6909958732
 30
0.0
 11
-492.8146558444
 21
-140.3090041268
 31
0.0
  0
LINE
  5
17A
330
1F
100
AcDbEntity
  8
0
  6
Continuous
 62
     7
370
    25
100
AcDbLine
 10
-492.8146558444
 20
371.6909958732
 30
0.0
 11
-492.8146558444
 21
115.6909958732
 31
0.0
  0
LINE
  5
17B
330
1F
100
AcDbEntity
  8
0
  6
Continuous
 62
     7
370
    25
100
AcDbLine
 10
-532.8146558444
 20
115.6909958732
 30
0.0
 11
-532.8146558444
 21
371.6909958732
 31
0.0
  0
LINE
  5
17C
330
1F
100
AcDbEntity
  8
0
  6
Continuous
 62
     7
370
    25
100
AcDbLine
 10
-532.8146558444
 20
-140.3090041268
 30
0.0
 11
-532.8146558444
 21
115.6909958732
 31
0.0
  0
LINE
  5
17D
330
1F
100
AcDbEntity
  8
0
  6
Continuous
 62
     1
370
    25
100
AcDbLine
 10
-493.8146558444
 20
115.6909958732
 30
0.0
 11
-493.8146558444
 21
372.6909958732
 31
0.0
  0
LINE
  5
17E
330
1F
100
AcDbEntity
  8
0
  6
Continuous
 62
     1
370
    25
100
AcDbLine
 10
-493.8146558444
 20
-141.3090041268
 30
0.0
 11
-493.8146558444
 21
115.6909958732
 31
0.0
  0
LINE
  5
17F
330
1F
100
AcDbEntity
  8
0
  6
Continuous
 62
     1
370
    25
100
AcDbLine
 10
-531.8146558444
 20
115.6909958732
 30
0.0
 11
-531.8146558444
 21
-141.3090041268
 31
0.0
  0
LINE
  5
180
330
1F
100
AcDbEntity
  8
0
  6
Continuous
 62
     1
370
    25
100
AcDbLine
 10
-531.8146558444
 20
372.6909958732
 30
0.0
 11
-531.8146558444
 21
115.6909958732
 31
0.0
  0
ARC
  5
181
330
1F
100
AcDbEntity
  8
0
  6
Continuous
 62
     7
370
    25
100
AcDbCircle
 10
778.3534118843
 20
371.6909958732
 30
0.0
 40
1.0
100
AcDbArc
 50
90.0
 51
180.0
  0
ARC
  5
182
330
1F
100
AcDbEntity
  8
0
  6
Continuous
 62
     7
370
    25
100
AcDbCircle
 10
778.3534118843
 20
-140.3090041268
 30
0.0
 40
1.0
100
AcDbArc
 50
180.0
 51
270.0
  0
LINE
  5
183
330
1F
100
AcDbEntity
  8
0
  6
Continuous
 62
     7
370
    25
100
AcDbLine
 10
778.3534118843
 20
-141.3090041268
 30
0.0
 11
816.3534118843
 21
-141.3090041268
 31
0.0
  0
LINE
  5
184
330
1F
100
AcDbEntity
  8
0
  6
Continuous
 62
     7
370
    25
100
AcDbLine
 10
816.3534118843
 20
372.6909958732
 30
0.0
 11
778.3534118843
 21
372.6909958732
 31
0.0
  0
ARC
  5
185
330
1F
100
AcDbEntity
  8
0
  6
Continuous
 62
     7
370
    25
100
AcDbCircle
 10
816.3534118843
 20
371.6909958732
 30
0.0
 40
1.0
100
AcDbArc
 50
0.0
 51
90.0
  0
ARC
  5
186
330
1F
100
AcDbEntity
  8
0
  6
Continuous
 62
     7
370
    25
100
AcDbCircle
 10
816.3534118843
 20
-140.3090041268
 30
0.0
 40
1.0
100
AcDbArc
 50
270.0
 51
0.0
  0
LINE
  5
187
330
1F
100
AcDbEntity
  8
0
  6
Continuous
 62
     7
370
    25
100
AcDbLine
 10
777.3534118843
 20
-140.3090041268
 30
0.0
 11
777.3534118843
 21
371.6909958732
 31
0.0
  0
LINE
  5
188
330
1F
100
AcDbEntity
  8
0
  6
Continuous
 62
     7
370
    25
100
AcDbLine
 10
817.3534118843
 20
371.6909958732
 30
0.0
 11
817.3534118843
 21
-140.3090041268
 31
0.0
  0
LINE
  5
189
330
1F
100
AcDbEntity
  8
0
  6
Continuous
 62
     1
370
    25
100
AcDbLine
 10
778.3534118843
 20
372.6909958732
 30
0.0
 11
778.3534118843
 21
-141.3090041268
 31
0.0
  0
LINE
  5
18A
330
1F
100
AcDbEntity
  8
0
  6
Continuous
 62
     1
370
    25
100
AcDbLine
 10
816.3534118843
 20
-141.3090041268
 30
0.0
 11
816.3534118843
 21
372.6909958732
 31
0.0
  0
ARC
  5
18B
330
1F
100
AcDbEntity
  8
0
  6
Continuous
 62
     7
370
    25
100
AcDbCircle
 10
-120.8894061796
 20
590.1884129587
 30
0.0
 40
1.0
100
AcDbArc
 50
180.0
 51
270.0
  0
ARC
  5
18C
330
1F
100
AcDbEntity
  8
0
  6
Continuous
 62
     7
370
    25
100
AcDbCircle
 10
391.1105938204
 20
590.1884129587
 30
0.0
 40
1.0
100
AcDbArc
 50
270.0
 51
0.0
  0
LINE
  5
18D
330
1F
100
AcDbEntity
  8
0
  6
Continuous
 62
     7
370
    25
100
AcDbLine
 10
392.1105938204
 20
590.1884129587
 30
0.0
 11
392.1105938204
 21
628.1884129587
 31
0.0
  0
LINE
  5
18E
330
1F
100
AcDbEntity
  8
0
  6
Continuous
 62
     7
370
    25
100
AcDbLine
 10
-121.8894061796
 20
628.1884129587
 30
0.0
 11
-121.8894061796
 21
590.1884129587
 31
0.0
  0
ARC
  5
18F
330
1F
100
AcDbEntity
  8
0
  6
Continuous
 62
     7
370
    25
100
AcDbCircle
 10
-120.8894061796
 20
628.1884129587
 30
0.0
 40
1.0
100
AcDbArc
 50
90.0
 51
180.0
  0
ARC
  5
190
330
1F
100
AcDbEntity
  8
0
  6
Continuous
 62
     7
370
    25
100
AcDbCircle
 10
391.1105938204
 20
628.1884129587
 30
0.0
 40
1.0
100
AcDbArc
 50
0.0
 51
90.0
  0
LINE
  5
191
330
1F
100
AcDbEntity
  8
0
  6
Continuous
 62
     7
370
    25
100
AcDbLine
 10
391.1105938204
 20
589.1884129587
 30
0.0
 11
-120.8894061796
 21
589.1884129587
 31
0.0
  0
LINE
  5
192
330
1F
100
AcDbEntity
  8
0
  6
Continuous
 62
     7
370
    25
100
AcDbLine
 10
-120.8894061796
 20
629.1884129587
 30
0.0
 11
391.1105938204
 21
629.1884129587
 31
0.0
  0
LINE
  5
193
330
1F
100
AcDbEntity
  8
0
  6
Continuous
 62
     1
370
    25
100
AcDbLine
 10
-121.8894061796
 20
590.1884129587
 30
0.0
 11
392.1105938204
 21
590.1884129587
 31
0.0
  0
LINE
  5
194
330
1F
100
AcDbEntity
  8
0
  6
Continuous
 62
     1
370
    25
100
AcDbLine
 10
392.1105938204
 20
628.1884129587
 30
0.0
 11
-121.8894061796
 21
628.1884129587
 31
0.0
  0
ARC
  5
195
330
1F
100
AcDbEntity
  8
0
  6
Continuous
 62
     7
370
    25
100
AcDbCircle
 10
391.1105938204
 20
-500.7528681287
 30
0.0
 40
1.0
100
AcDbArc
 50
0.0
 51
90.0
  0
ARC
  5
196
330
1F
100
AcDbEntity
  8
0
  6
Continuous
 62
     7
370
    25
100
AcDbCircle
 10
-120.8894061796
 20
-500.7528681287
 30
0.0
 40
1.0
100
AcDbArc
 50
90.0
 51
180.0
  0
LINE
  5
197
330
1F
100
AcDbEntity
  8
0
  6
Continuous
 62
     7
370
    25
100
AcDbLine
 10
-121.8894061796
 20
-500.7528681287
 30
0.0
 11
-121.8894061796
 21
-538.7528681287
 31
0.0
  0
LINE
  5
198
330
1F
100
AcDbEntity
  8
0
  6
Continuous
 62
     7
370
    25
100
AcDbLine
 10
392.1105938204
 20
-538.7528681287
 30
0.0
 11
392.1105938204
 21
-500.7528681287
 31
0.0
  0
ARC
  5
199
330
1F
100
AcDbEntity
  8
0
  6
Continuous
 62
     7
370
    25
100
AcDbCircle
 10
391.1105938204
 20
-538.7528681287
 30
0.0
 40
1.0
100
AcDbArc
 50
270.0
 51
0.0
  0
ARC
  5
19A
330
1F
100
AcDbEntity
  8
0
  6
Continuous
 62
     7
370
    25
100
AcDbCircle
 10
-120.8894061796
 20
-538.7528681287
 30
0.0
 40
1.0
100
AcDbArc
 50
180.0
 51
270.0
  0
LINE
  5
19B
330
1F
100
AcDbEntity
  8
0
  6
Continuous
 62
     7
370
    25
100
AcDbLine
 10
-120.8894061796
 20
-499.7528681287
 30
0.0
 11
391.1105938204
 21
-499.7528681287
 31
0.0
  0
LINE
  5
19C
330
1F
100
AcDbEntity
  8
0
  6
Continuous
 62
     7
370
    25
100
AcDbLine
 10
391.1105938204
 20
-539.7528681287
 30
0.0
 11
-120.8894061796
 21
-539.7528681287
 31
0.0
  0
LINE
  5
19D
330
1F
100
AcDbEntity
  8
0
  6
Continuous
 62
     1
370
    25
100
AcDbLine
 10
392.1105938204
 20
-500.7528681287
 30
0.0
 11
-121.8894061796
 21
-500.7528681287
 31
0.0
  0
LINE
  5
19E
330
1F
100
AcDbEntity
  8
0
  6
Continuous
 62
     1
370
    25
100
AcDbLine
 10
-121.8894061796
 20
-538.7528681287
 30
0.0
 11
392.1105938204
 21
-538.7528681287
 31
0.0
  0
SPLINE
  5
19F
330
1F
100
AcDbEntity
  8
0
  6
Continuous
 62
     7
370
    25
100
AcDbSpline
210
0.0
220
0.0
230
1.0
 70
     8
 71
     3
 72
    83
 73
    79
 74
     0
 42
0.00000001
 43
0.00000001
 40
0.0
 40
0.0
 40
0.0
 40
0.0
 40
0.0062724226904091
 40
0.0196543085001437
 40
0.0330412154019286
 40
0.0464328441838632
 40
0.0598287758402036
 40
0.0732285168381455
 40
0.0866315388869722
 40
0.1000373111730882
 40
0.1134453244737131
 40
0.1268551075986269
 40
0.1402662372256505
 40
0.1536783424612606
 40
0.1670911054735844
 40
0.1805042594093733
 40
0.1939175845982241
 40
0.2073308574909986
 40
0.2207439453425369
 40
0.2341567503242569
 40
0.2475692005515188
 40
0.2609812458548959
 40
0.2743928540445682
 40
0.287804007671317
 40
0.301214701260477
 40
0.3146249389794998
 40
0.3280347326926122
 40
0.3414441003541111
 40
0.3548530646933295
 40
0.3682616521477579
 40
0.3816698920051216
 40
0.3950778157199273
 40
0.4084854563744988
 40
0.4218928482588563
 40
0.4353000265475168
 40
0.4487070270547184
 40
0.4621138860523133
 40
0.4755206401369986
 40
0.4889273261354379
 40
0.5023339810373506
 40
0.5157406419477824
 40
0.5291473358217622
 40
0.5425540977401101
 40
0.555960964963234
 40
0.5693679747302355
 40
0.582775164198466
 40
0.5961825703580228
 40
0.6095902299113088
 40
0.622998179106607
 40
0.6364064535127474
 40
0.6498150877197182
 40
0.6632241149473028
 40
0.6766335665405406
 40
0.6900434713271347
 40
0.7034538548075638
 40
0.716864738144119
 40
0.7302761369101748
 40
0.743688059556251
 40
0.7571005055453641
 40
0.7705134631076094
 40
0.7839269065640542
 40
0.7973407931749112
 40
0.8107550594789752
 40
0.8241696171139903
 40
0.8375843481454217
 40
0.8509990556997311
 40
0.8644135181893325
 40
0.877827481921173
 40
0.8912406419013301
 40
0.904652638770478
 40
0.9180630580731589
 40
0.9314714330232511
 40
0.9448772521089102
 40
0.9582799729382991
 40
0.971679043569462
 40
0.985073932087066
 40
0.9984641642948887
 40
0.9999999999999999
 40
0.9999999999999999
 40
0.9999999999999999
 40
0.9999999999999999
 10
895.2117381391345
 20
-238.3353489686746
 30
0.0
 10
894.3463768961332
 20
-238.2572655659463
 30
0.0
 10
891.6348126930347
 20
-238.0125953066686
 30
0.0
 10
886.9618106307724
 20
-237.9107011230306
 30
0.0
 10
881.2059897697704
 20
-238.0161936688677
 30
0.0
 10
875.3506869140176
 20
-238.4267105649155
 30
0.0
 10
869.410842134709
 20
-239.1215095997167
 30
0.0
 10
863.3918116014148
 20
-240.1052264546992
 30
0.0
 10
857.3016601954854
 20
-241.3752074841331
 30
0.0
 10
851.1478422212687
 20
-242.9302708770933
 30
0.0
 10
844.9380694991794
 20
-244.7683648827621
 30
0.0
 10
838.6800595335507
 20
-246.8872043213594
 30
0.0
 10
832.3815863975999
 20
-249.2841098376891
 30
0.0
 10
826.0504527012365
 20
-251.9560612182745
 30
0.0
 10
819.6944844955599
 20
-254.8996932516469
 30
0.0
 10
813.321521349427
 20
-258.111306652035
 30
0.0
 10
806.9394159516035
 20
-261.5868705183845
 30
0.0
 10
800.556017839871
 20
-265.3220328928901
 30
0.0
 10
794.1791653075195
 20
-269.3121280547279
 30
0.0
 10
787.8166707121719
 20
-273.5521886933316
 30
0.0
 10
781.4763215487825
 20
-278.0369477191345
 30
0.0
 10
775.1658732769085
 20
-282.760844365373
 30
0.0
 10
768.8930412809257
 20
-287.7180308352705
 30
0.0
 10
762.6654926550665
 20
-292.9023791581409
 30
0.0
 10
756.4908378356095
 20
-298.3074883003888
 30
0.0
 10
750.3766221096084
 20
-303.9266915649378
 30
0.0
 10
744.3303170330844
 20
-309.7530643013091
 30
0.0
 10
738.3593117926102
 20
-315.7794319393673
 30
0.0
 10
732.4709045436435
 20
-321.9983783523184
 30
0.0
 10
726.6722937574048
 20
-328.4022545486802
 30
0.0
 10
720.9705696060474
 20
-334.9831876884347
 30
0.0
 10
715.3727054135979
 20
-341.7330904151141
 30
0.0
 10
709.8855491978685
 20
-348.6436704929936
 30
0.0
 10
704.5158153263831
 20
-355.7064407366324
 30
0.0
 10
699.270076307351
 20
-362.9127292185956
 30
0.0
 10
694.1547547349332
 20
-370.2536897401329
 30
0.0
 10
689.1761154064436
 20
-377.7203125488333
 30
0.0
 10
684.3402576277391
 20
-385.3034352866632
 30
0.0
 10
679.6531077217944
 20
-392.9937541514075
 30
0.0
 10
675.1204117545111
 20
-400.7818352539172
 30
0.0
 10
670.7477296024664
 20
-408.6581241510066
 30
0.0
 10
666.5404270754601
 20
-416.612959027724
 30
0.0
 10
662.5036690815666
 20
-424.6365829834197
 30
0.0
 10
658.6424124122564
 20
-432.719158106331
 30
0.0
 10
654.9614006611679
 20
-440.8507759839472
 30
0.0
 10
651.4651587263378
 20
-449.0214694286851
 30
0.0
 10
648.1579873793611
 20
-457.2212246951443
 30
0.0
 10
645.0439581353105
 20
-465.4399937412786
 30
0.0
 10
642.126908430736
 20
-473.667706511632
 30
0.0
 10
639.4104371160525
 20
-481.8942832199017
 30
0.0
 10
636.8979002674296
 20
-490.109646607002
 30
0.0
 10
634.5924073218156
 20
-498.3037341496192
 30
0.0
 10
632.4968175368931
 20
-506.4665101929251
 30
0.0
 10
630.6137367754474
 20
-514.5879779797332
 30
0.0
 10
628.9455146107213
 20
-522.6581915469764
 30
0.0
 10
627.4942417456905
 20
-530.6672674590732
 30
0.0
 10
626.2617477346602
 20
-538.6053963466863
 30
0.0
 10
625.2495989899932
 20
-546.4628542188059
 30
0.0
 10
624.4590970499762
 20
-554.2300135163933
 30
0.0
 10
623.8912770757756
 20
-561.8973538773528
 30
0.0
 10
623.5469065357902
 20
-569.4554725864789
 30
0.0
 10
623.4264840258792
 20
-576.895094689409
 30
0.0
 10
623.5302381595968
 20
-584.2070827639303
 30
0.0
 10
623.8581264623986
 20
-591.3824463427393
 30
0.0
 10
624.4098335454056
 20
-598.4123433224656
 30
0.0
 10
625.1847687472366
 20
-605.2880922654531
 30
0.0
 10
626.1820636603973
 20
-612.0011844289268
 30
0.0
 10
627.4005724267847
 20
-618.5432983721804
 30
0.0
 10
628.838865536194
 20
-624.9063108697185
 30
0.0
 10
630.4952416671346
 20
-631.0822855965007
 30
0.0
 10
632.3676693342276
 20
-637.0635529988729
 30
0.0
 10
634.4539910145904
 20
-642.8424636773757
 30
0.0
 10
636.7511488484198
 20
-648.4123658287315
 30
0.0
 10
639.2580639376599
 20
-653.7640229267171
 30
0.0
 10
641.9648911222962
 20
-658.8990505974242
 30
0.0
 10
644.8931101454959
 20
-663.779870612837
 30
0.0
 10
647.0454608360434
 20
-667.1192847403012
 30
0.0
 10
648.2769326281027
 20
-668.7587817458057
 30
0.0
 10
648.403646398877
 20
-668.9274797615298
 30
0.0
  0
LINE
  5
1A0
330
1F
100
AcDbEntity
  8
0
  6
Continuous
 62
     7
370
    25
100
AcDbLine
 10
960.8426427491
 20
-265.584926646
 30
0.0
 11
933.972585064
 21
-250.0731725214
 31
0.0
  0
LINE
  5
1A1
330
1F
100
AcDbEntity
  8
0
  6
Continuous
 62
     7
370
    25
100
AcDbLine
 10
676.9934707766
 20
-695.222287785
 30
0.0
 11
703.8635284617
 21
-710.7340419097
 31
0.0
  0
SPLINE
  5
1A2
330
1F
100
AcDbEntity
  8
0
  6
Continuous
 62
     7
370
    25
100
AcDbSpline
210
0.0
220
0.0
230
1.0
 70
     8
 71
     3
 72
    68
 73
    64
 74
     0
 42
0.00000001
 43
0.00000001
 40
0.0
 40
0.0
 40
0.0
 40
0.0
 40
0.0004846330137361
 40
0.0172189544965973
 40
0.0339596789793847
 40
0.0507065426659494
 40
0.0674590986669558
 40
0.0842167755647394
 40
0.1009789314782299
 40
0.1177448998884191
 40
0.1345140255252502
 40
0.1512856902144159
 40
0.16805932964369
 40
0.1848344425735694
 40
0.201610594197039
 40
0.2183874152763495
 40
0.2351645984648545
 40
0.2519418687847912
 40
0.2687189930907548
 40
0.2854958281859338
 40
0.3022722665595894
 40
0.3190482307690548
 40
0.3358236684163382
 40
0.3525985477486355
 40
0.3693728538703053
 40
0.3861465855265886
 40
0.4029197524050031
 40
0.4196923728944054
 40
0.4364644722415788
 40
0.4532360810482746
 40
0.4700072340565381
 40
0.4867779691758347
 40
0.5035483267113552
 40
0.520318348758428
 40
0.5370880787330512
 40
0.5538575610130847
 40
0.5706268406685253
 40
0.5873959632625739
 40
0.6041649747078836
 40
0.6209339211645921
 40
0.6377028489683796
 40
0.6544718005134548
 40
0.6712408109147912
 40
0.6880099267667595
 40
0.704779194670575
 40
0.7215486611708231
 40
0.7383183726677246
 40
0.7550883752926872
 40
0.7718587147343807
 40
0.7886294360005521
 40
0.8054005830982714
 40
0.8221721986122317
 40
0.8389443231569577
 40
0.85571699467451
 40
0.8724902475442073
 40
0.8892641114654287
 40
0.9060386100685108
 40
0.9228137592027336
 40
0.9395895648446965
 40
0.9563660205659502
 40
0.9731431044967916
 40
0.9899207757256004
 40
1.0
 40
1.0
 40
1.0
 40
1.0
 10
741.9264736985939
 20
-722.4458251310615
 30
0.0
 10
741.9794552900294
 20
-722.4518672030157
 30
0.0
 10
743.8618850590078
 20
-722.6665413153746
 30
0.0
 10
747.6763871343247
 20
-722.8245166290543
 30
0.0
 10
753.3707600172785
 20
-722.8961476048066
 30
0.0
 10
759.1758028331128
 20
-722.6446510380911
 30
0.0
 10
765.0675926327752
 20
-722.1134186147713
 30
0.0
 10
771.0432711514644
 20
-721.2914684473492
 30
0.0
 10
777.0941793763545
 20
-720.1828818964395
 30
0.0
 10
783.2130845651654
 20
-718.788186964266
 30
0.0
 10
789.3922658703615
 20
-717.1093437348742
 30
0.0
 10
795.6240481066673
 20
-715.1484001774872
 30
0.0
 10
801.900676691108
 20
-712.9078430900743
 30
0.0
 10
808.2143667605859
 20
-710.3904939413726
 30
0.0
 10
814.5573035649115
 20
-707.599526546629
 30
0.0
 10
820.9216543373716
 20
-704.538452306879
 30
0.0
 10
827.2995729054727
 20
-701.2111161298378
 30
0.0
 10
833.6832066754932
 20
-697.6216900495259
 30
0.0
 10
840.0647101080029
 20
-693.7746638375388
 30
0.0
 10
846.4362551858571
 20
-689.6748358494375
 30
0.0
 10
852.7900398328179
 20
-685.3273048113813
 30
0.0
 10
859.1182895598312
 20
-680.7374668025013
 30
0.0
 10
865.4132653997369
 20
-675.9110087001615
 30
0.0
 10
871.6672720257897
 20
-670.853901447836
 30
0.0
 10
877.8726660365484
 20
-665.5723930927493
 30
0.0
 10
884.0218643814803
 20
-660.0730015523633
 30
0.0
 10
890.107352895899
 20
-654.3625070815144
 30
0.0
 10
896.1216949116499
 20
-648.4479444221822
 30
0.0
 10
902.0575399096997
 20
-642.3365946263423
 30
0.0
 10
907.9076321818719
 20
-636.0359765490513
 30
0.0
 10
913.6648194707815
 20
-629.5538380141626
 30
0.0
 10
919.3220615592028
 20
-622.8981466590939
 30
0.0
 10
924.872438782389
 20
-616.0770804681096
 30
0.0
 10
930.3091604391074
 20
-609.0990180058641
 30
0.0
 10
935.6255730792451
 20
-601.9725283646269
 30
0.0
 10
940.8151686477576
 20
-594.7063608398666
 30
0.0
 10
945.8715924664407
 20
-587.3094343497661
 30
0.0
 10
950.7886510365113
 20
-579.7908266149441
 30
0.0
 10
955.5603196463104
 20
-572.159763115158
 30
0.0
 10
960.180749769579
 20
-564.4256058402129
 30
0.0
 10
964.6442758801826
 20
-556.597842485035
 30
0.0
 10
968.9454218347054
 20
-548.6860760369057
 30
0.0
 10
973.0789087197135
 20
-540.7000112822974
 30
0.0
 10
977.0396616063874
 20
-532.6494422116367
 30
0.0
 10
980.822816163988
 20
-524.5442387578704
 30
0.0
 10
984.4237235676303
 20
-516.3943364862533
 30
0.0
 10
987.8379560948786
 20
-508.2097244113955
 30
0.0
 10
991.0613124265391
 20
-500.0004327580194
 30
0.0
 10
994.0898226421907
 20
-491.7765206879668
 30
0.0
 10
996.9197529091056
 20
-483.5480640123976
 30
0.0
 10
999.5476098381486
 20
-475.3251429243837
 30
0.0
 10
1001.970144578994
 20
-467.1178297314609
 30
0.0
 10
1004.184356364975
 20
-458.9361767807718
 30
0.0
 10
1006.187496577128
 20
-450.7902039802343
 30
0.0
 10
1007.977069334116
 20
-442.6898882710973
 30
0.0
 10
1009.550843523335
 20
-434.6451463965473
 30
0.0
 10
1010.906820632786
 20
-426.6658434121167
 30
0.0
 10
1012.043366095446
 20
-418.7617059892156
 30
0.0
 10
1012.958728982738
 20
-410.9425920751672
 30
0.0
 10
1013.652843266062
 20
-403.2174317054941
 30
0.0
 10
1014.120612524041
 20
-395.5981287433173
 30
0.0
 10
1014.342858950422
 20
-389.0849013173159
 30
0.0
 10
1014.364354459534
 20
-385.1398128856294
 30
0.0
 10
1014.372421589155
 20
-383.6592459645362
 30
0.0
  0
SPLINE
  5
1A3
330
1F
100
AcDbEntity
  8
0
  6
Continuous
 62
     7
370
    25
100
AcDbSpline
210
0.0
220
0.0
230
1.0
 70
     8
 71
     3
 72
    23
 73
    19
 74
     0
 42
0.00000001
 43
0.00000001
 40
0.0
 40
0.0
 40
0.0
 40
0.0
 40
0.0354267131943143
 40
0.1027258183878846
 40
0.1700289530510515
 40
0.2373324650581187
 40
0.3046352279495363
 40
0.3719360745075657
 40
0.4392335892805183
 40
0.5065260896302791
 40
0.5738116163061595
 40
0.6410879388782228
 40
0.7083525824279381
 40
0.7756028825025372
 40
0.8428360750845572
 40
0.9100494266879791
 40
0.9772404061552183
 40
0.9999999999999999
 40
0.9999999999999999
 40
0.9999999999999999
 40
0.9999999999999999
 10
1014.372421589155
 20
-383.6592459645362
 30
0.0
 10
1014.366173147854
 20
-382.3695030470161
 30
0.0
 10
1014.348054722848
 20
-378.6296727109213
 30
0.0
 10
1014.146753911852
 20
-372.5402107776448
 30
0.0
 10
1013.695087116277
 20
-365.4445067863998
 30
0.0
 10
1013.016852004694
 20
-358.5007780433195
 30
0.0
 10
1012.116658985654
 20
-351.7155592401696
 30
0.0
 10
1010.994499194336
 20
-345.0978326842018
 30
0.0
 10
1009.651955400699
 20
-338.6556529846886
 30
0.0
 10
1008.090533514327
 20
-332.3970833372533
 30
0.0
 10
1006.312148743706
 20
-326.3298901141314
 30
0.0
 10
1004.318866943532
 20
-320.4617729802357
 30
0.0
 10
1002.113469913843
 20
-314.7996821961498
 30
0.0
 10
999.6974681677768
 20
-309.3522428483944
 30
0.0
 10
997.0784917626722
 20
-304.1206582310124
 30
0.0
 10
994.2427246067144
 20
-299.1325642768722
 30
0.0
 10
991.9153277623864
 20
-295.3768427669071
 30
0.0
 10
990.4682297429404
 20
-293.3673274219842
 30
0.0
 10
990.1020801792023
 20
-292.8588731521415
 30
0.0
  0
SPLINE
  5
1A4
330
1F
100
AcDbEntity
  8
0
  6
Continuous
 62
     7
370
    25
100
AcDbSpline
210
0.0
220
0.0
230
1.0
 70
     8
 71
     3
 72
    20
 73
    16
 74
     0
 42
0.00000001
 43
0.00000001
 40
0.0
 40
0.0
 40
0.0
 40
0.0
 40
0.0639072964692942
 40
0.1430016584856819
 40
0.2220501049509142
 40
0.3010575679182773
 40
0.3800298544935747
 40
0.4589730405601684
 40
0.5378930240909044
 40
0.6167952322246297
 40
0.6956844576531539
 40
0.7745647932027159
 40
0.8534396344288324
 40
0.9323117248041943
 40
1.0
 40
1.0
 40
1.0
 40
1.0
 10
920.6945407471308
 20
-329.7030131687638
 30
0.0
 10
921.412117091543
 20
-330.7559365310519
 30
0.0
 10
923.0177961455828
 20
-333.1120021977926
 30
0.0
 10
925.278733539649
 20
-337.0547358446672
 30
0.0
 10
927.5153129282864
 20
-341.4682347890677
 30
0.0
 10
929.5418481579371
 20
-346.1084813900232
 30
0.0
 10
931.362297969057
 20
-350.9587466372645
 30
0.0
 10
932.971778459595
 20
-356.0134701315878
 30
0.0
 10
934.3681309228213
 20
-361.2637050130701
 30
0.0
 10
935.5489765797557
 20
-366.7009270805744
 30
0.0
 10
936.5119771215064
 20
-372.3163304505666
 30
0.0
 10
937.2567939896987
 20
-378.0998527693478
 30
0.0
 10
937.7770583014452
 20
-384.0448203900564
 30
0.0
 10
938.0757760251364
 20
-389.8427905293581
 30
0.0
 10
938.110275931178
 20
-393.710758976138
 30
0.0
 10
938.126209564567
 20
-395.4971635859656
 30
0.0
  0
SPLINE
  5
1A5
330
1F
100
AcDbEntity
  8
0
  6
Continuous
 62
     7
370
    25
100
AcDbSpline
210
0.0
220
0.0
230
1.0
 70
     8
 71
     3
 72
    60
 73
    56
 74
     0
 42
0.00000001
 43
0.00000001
 40
0.0
 40
0.0
 40
0.0
 40
0.0
 40
0.0101509366678402
 40
0.0294512519986533
 40
0.0487532906454766
 40
0.0680561119454464
 40
0.0873598553326952
 40
0.1066646042480878
 40
0.1259703976300093
 40
0.1452772395739941
 40
0.1645851072084045
 40
0.1838939570295436
 40
0.2032037299358034
 40
0.2225143551817649
 40
0.241825753447701
 40
0.261137839192688
 40
0.2804505224333547
 40
0.2997637100665756
 40
0.3190773068339377
 40
0.3383912160086132
 40
0.3577053398712603
 40
0.3770195800305144
 40
0.3963338376352732
 40
0.4156479862424582
 40
0.4349619207691152
 40
0.4542755418553092
 40
0.4735887503026939
 40
0.4929014473575584
 40
0.5122135351361112
 40
0.5315249172446066
 40
0.5508354996581895
 40
0.5701451919358156
 40
0.5894539088650423
 40
0.608761572650653
 40
0.6280681157842278
 40
0.6473734847582483
 40
0.6666776448162524
 40
0.6859805859581984
 40
0.7052823304430077
 40
0.724582942041307
 40
0.7438825372797563
 40
0.7631812988670057
 40
0.7824794913761712
 40
0.8017774718209857
 40
0.8210755568237703
 40
0.8403743210196587
 40
0.8596744911389322
 40
0.8789769624434269
 40
0.8982828084074755
 40
0.9175932784386007
 40
0.9369097770109853
 40
0.956233816593038
 40
0.9755669369100471
 40
0.994910585357459
 40
1.0
 40
1.0
 40
1.0
 40
1.0
 10
938.126209564567
 20
-395.4971635859656
 30
0.0
 10
938.1200222350369
 20
-396.6011852670537
 30
0.0
 10
938.1020707289684
 20
-399.8043202885457
 30
0.0
 10
937.902510767879
 20
-405.2029260887726
 30
0.0
 10
937.4546383169768
 20
-411.7217944726152
 30
0.0
 10
936.7822752829553
 20
-418.3454541072855
 30
0.0
 10
935.8902899395307
 20
-425.0603391985861
 30
0.0
 10
934.7790709192832
 20
-431.8557628730803
 30
0.0
 10
933.4506823153756
 20
-438.7201129521424
 30
0.0
 10
931.9072135716733
 20
-445.641863948566
 30
0.0
 10
930.1512173137058
 20
-452.6093330261591
 30
0.0
 10
928.1855865955381
 20
-459.6107723553046
 30
0.0
 10
926.0135814011296
 20
-466.634371121516
 30
0.0
 10
923.6388142747365
 20
-473.6682815387863
 30
0.0
 10
921.0652460997507
 20
-480.7006382264699
 30
0.0
 10
918.2971784105505
 20
-487.719579162558
 30
0.0
 10
915.3392459305319
 20
-494.7132660123068
 30
0.0
 10
912.1964083826452
 20
-501.6699044184207
 30
0.0
 10
908.8739418576805
 20
-508.5777640883169
 30
0.0
 10
905.3774296891298
 20
-515.4251987114089
 30
0.0
 10
901.712752870476
 20
-522.2006656832078
 30
0.0
 10
897.8860800256938
 20
-528.892745624781
 30
0.0
 10
893.9038588227148
 20
-535.4901585765414
 30
0.0
 10
889.7728039459114
 20
-541.9817857450194
 30
0.0
 10
885.4998854162078
 20
-548.3566890837185
 30
0.0
 10
881.0923146954526
 20
-554.6041327456691
 30
0.0
 10
876.55753402082
 20
-560.7135988163925
 30
0.0
 10
871.9032043796265
 20
-566.674804602653
 30
0.0
 10
867.1371927107724
 20
-572.4777202397476
 30
0.0
 10
862.2675587489427
 20
-578.112585955554
 30
0.0
 10
857.3025415148338
 20
-583.5699289739367
 30
0.0
 10
852.2505454507022
 20
-588.8405800400619
 30
0.0
 10
847.120126195546
 20
-593.9156895494109
 30
0.0
 10
841.9199759880969
 20
-598.7867432604273
 30
0.0
 10
836.6589086784303
 20
-603.4455775672486
 30
0.0
 10
831.3458443204798
 20
-607.884394303161
 30
0.0
 10
825.9897933083162
 20
-612.0957750362668
 30
0.0
 10
820.5998400091613
 20
-616.072694805601
 30
0.0
 10
815.185125837461
 20
-619.8085352257729
 30
0.0
 10
809.7548317063571
 20
-623.2970968651703
 30
0.0
 10
804.3181597973639
 20
-626.5326107548757
 30
0.0
 10
798.8843145772979
 20
-629.509748888456
 30
0.0
 10
793.462483769264
 20
-632.2236330018318
 30
0.0
 10
788.0618325813978
 20
-634.6698359867091
 30
0.0
 10
782.6914715619909
 20
-636.8443951719393
 30
0.0
 10
777.3604324458316
 20
-638.7438216387067
 30
0.0
 10
772.0776391057952
 20
-640.3650885163976
 30
0.0
 10
766.8518710921817
 20
-641.70568672674
 30
0.0
 10
761.6918417213406
 20
-642.7633844376652
 30
0.0
 10
756.6058117626455
 20
-643.5370958315933
 30
0.0
 10
751.6029497820007
 20
-644.0235918618031
 30
0.0
 10
746.6881909230071
 20
-644.2297222940865
 30
0.0
 10
741.8814022131118
 20
-644.1267064205838
 30
0.0
 10
738.3099504727221
 20
-643.8959862123013
 30
0.0
 10
736.3820215219554
 20
-643.6080745280522
 30
0.0
 10
735.9804333217496
 20
-643.5481024346564
 30
0.0
  0
SPLINE
  5
1A6
330
1F
100
AcDbEntity
  8
0
  6
Continuous
 62
     7
370
    25
100
AcDbSpline
210
0.0
220
0.0
230
1.0
 70
     8
 71
     3
 72
    13
 73
     9
 74
     0
 42
0.00000001
 43
0.00000001
 40
0.0
 40
0.0
 40
0.0
 40
0.0
 40
0.0301718316561679
 40
0.2730495324889974
 40
0.4848307094693288
 40
0.7100393803268706
 40
0.9297739421877084
 40
1.0
 40
1.0
 40
1.0
 40
1.0
 10
926.089142635544
 20
-529.6142996923593
 30
0.0
 10
926.1255291892174
 20
-529.6314283234805
 30
0.0
 10
926.4548208140233
 20
-529.7864392877831
 30
0.0
 10
926.9070023683813
 20
-530.2978760151977
 30
0.0
 10
927.458103950257
 20
-531.1902324916399
 30
0.0
 10
927.8177189023911
 20
-532.3178365393645
 30
0.0
 10
927.9569545699351
 20
-533.3621427986477
 30
0.0
 10
927.9660954493407
 20
-534.0035954701908
 30
0.0
 10
927.9683092945392
 20
-534.1589499884922
 30
0.0
  0
SPLINE
  5
1A7
330
1F
100
AcDbEntity
  8
0
  6
Continuous
 62
     7
370
    25
100
AcDbSpline
210
0.0
220
0.0
230
1.0
 70
     8
 71
     3
 72
    22
 73
    18
 74
     0
 42
0.00000001
 43
0.00000001
 40
0.0
 40
0.0
 40
0.0
 40
0.0
 40
0.0362934660826157
 40
0.1059968498303184
 40
0.175951334760691
 40
0.2461213226811121
 40
0.3164540845392462
 40
0.3868645620045619
 40
0.4572511292761177
 40
0.5274906044540812
 40
0.5974864248553912
 40
0.6671576272454719
 40
0.7364816323994454
 40
0.8056017084958202
 40
0.8748537277511559
 40
0.9452202796698007
 40
1.0
 40
1.0
 40
1.0
 40
1.0
 10
927.9683092945392
 20
-534.1589499884922
 30
0.0
 10
927.9626642486583
 20
-534.4165453701739
 30
0.0
 10
927.946177614972
 20
-535.1688653312093
 30
0.0
 10
927.7594198649865
 20
-536.515639579677
 30
0.0
 10
927.3385560308063
 20
-538.1864549760737
 30
0.0
 10
926.714413548996
 20
-539.887459767685
 30
0.0
 10
925.9066370744107
 20
-541.5648647402858
 30
0.0
 10
924.9370773484791
 20
-543.1691576103725
 30
0.0
 10
923.8350214893949
 20
-544.6519670315373
 30
0.0
 10
922.6347179756622
 20
-545.9693320816847
 30
0.0
 10
921.3748401024201
 20
-547.0830821918814
 30
0.0
 10
920.0969558135638
 20
-547.9630867568708
 30
0.0
 10
918.8446779881934
 20
-548.588036764259
 30
0.0
 10
917.6593954117043
 20
-548.9512192916571
 30
0.0
 10
916.5834631034526
 20
-549.0472723053596
 30
0.0
 10
915.7004256725282
 20
-548.9363684566621
 30
0.0
 10
915.2421039594918
 20
-548.6930145059408
 30
0.0
 10
915.0414848374817
 20
-548.5864922650285
 30
0.0
  0
SPLINE
  5
1A8
330
1F
100
AcDbEntity
  8
0
  6
Continuous
 62
     7
370
    25
100
AcDbSpline
210
0.0
220
0.0
230
1.0
 70
     8
 71
     3
 72
    73
 73
    69
 74
     0
 42
0.00000001
 43
0.00000001
 40
0.0
 40
0.0
 40
0.0
 40
0.0
 40
0.0004597940251095
 40
0.015960603496653
 40
0.0314516594892928
 40
0.0469334833421726
 40
0.0624069598614658
 40
0.0778731874438814
 40
0.0933333504479447
 40
0.108788621974682
 40
0.124240097628846
 40
0.1396887563074655
 40
0.1551354421265139
 40
0.1705808614093233
 40
0.1860255894273038
 40
0.2014700827219819
 40
0.2169145972835638
 40
0.2323594147737122
 40
0.2478047490366258
 40
0.2632507492513244
 40
0.2786975121902925
 40
0.294145092737139
 40
0.3095935127092784
 40
0.3250427681275734
 40
0.3404928351177391
 40
0.3559436746390588
 40
0.3713952362285069
 40
0.3868474609310865
 40
0.4023002835661083
 40
0.4177536344573791
 40
0.4332074407348587
 40
0.4486616272971223
 40
0.4641161175083888
 40
0.4795708336909342
 40
0.4950256974632063
 40
0.5104806299658456
 40
0.5259355484710299
 40
0.5413903506884373
 40
0.5568449571117787
 40
0.5722992882562915
 40
0.5877532648260595
 40
0.6032068079718623
 40
0.6186598396745981
 40
0.6341122832993493
 40
0.6495640643742958
 40
0.6650151116601116
 40
0.6804653585896095
 40
0.6959147451741948
 40
0.7113632204932276
 40
0.7268107459039048
 40
0.7422572991319518
 40
0.7577028794246856
 40
0.7731475139641372
 40
0.7885912657422932
 40
0.8040342430831476
 40
0.8194766109416983
 40
0.834918603997295
 40
0.8503604964779451
 40
0.8658026021839258
 40
0.8812454168157258
 40
0.8966895622037181
 40
0.9121357981666188
 40
0.9275850278090456
 40
0.9430382917301152
 40
0.9584967455362775
 40
0.9739616144707585
 40
0.9894341195317564
 40
0.9999999999999999
 40
0.9999999999999999
 40
0.9999999999999999
 40
0.9999999999999999
 10
718.5817491635121
 20
-633.1445345302083
 30
0.0
 10
718.5532665128941
 20
-633.1085869983134
 30
0.0
 10
717.5645622926962
 20
-631.8607580315879
 30
0.0
 10
715.789591949453
 20
-629.1753556633366
 30
0.0
 10
713.2782154203725
 20
-625.0774265878487
 30
0.0
 10
710.9885697132923
 20
-620.7212717355644
 30
0.0
 10
708.8962830776613
 20
-616.1510100251669
 30
0.0
 10
707.0122192132048
 20
-611.3643372492619
 30
0.0
 10
705.3374189055999
 20
-606.3717802456686
 30
0.0
 10
703.8751658690385
 20
-601.1808418966
 30
0.0
 10
702.6277505595275
 20
-595.8002519953061
 30
0.0
 10
701.5973259763487
 20
-590.2388290207984
 30
0.0
 10
700.785664927941
 20
-584.5057789312692
 30
0.0
 10
700.1942108570288
 20
-578.6106033435113
 30
0.0
 10
699.824050873427
 20
-572.5631074812519
 30
0.0
 10
699.6759116887946
 20
-566.3733905242035
 30
0.0
 10
699.7501490352846
 20
-560.0518144224553
 30
0.0
 10
700.0467433363793
 20
-553.6089820224583
 30
0.0
 10
700.5652986303319
 20
-547.0557024029191
 30
0.0
 10
701.3050412358007
 20
-540.4029853918453
 30
0.0
 10
702.2648192084081
 20
-533.6620215246418
 30
0.0
 10
703.4431031500687
 20
-526.8441604319607
 30
0.0
 10
704.8379881807945
 20
-519.960889259908
 30
0.0
 10
706.4471969317049
 20
-513.0238111917042
 30
0.0
 10
708.2680834373207
 20
-506.0446241100091
 30
0.0
 10
710.2976378282254
 20
-499.035099416504
 30
0.0
 10
712.5324917446516
 20
-492.0070610138061
 30
0.0
 10
714.9689244081908
 20
-484.9723644491608
 30
0.0
 10
717.6028693021526
 20
-477.9428762179718
 30
0.0
 10
720.4299214214974
 20
-470.9304532262493
 30
0.0
 10
723.4453450611256
 20
-463.9469224134147
 30
0.0
 10
726.6440821170676
 20
-457.0040605398369
 30
0.0
 10
730.0207608792517
 20
-450.1135741464869
 30
0.0
 10
733.5697052973774
 20
-443.2870796969356
 30
0.0
 10
737.2849447033922
 20
-436.5360839143197
 30
0.0
 10
741.1602236792568
 20
-429.8719648370454
 30
0.0
 10
745.1890109028931
 20
-423.3059552887387
 30
0.0
 10
749.3645118225025
 20
-416.8491203981391
 30
0.0
 10
753.6796804670756
 20
-410.5123383141351
 30
0.0
 10
758.1272332801567
 20
-404.3062792485201
 30
0.0
 10
762.6996593109553
 20
-398.2413905676028
 30
0.0
 10
767.3892327618289
 20
-392.3278789582648
 30
0.0
 10
772.188025897484
 20
-386.5756929244027
 30
0.0
 10
777.0879223099632
 20
-380.9945056321252
 30
0.0
 10
782.0806305373718
 20
-375.593698120911
 30
0.0
 10
787.1576980384478
 20
-370.3823428983472
 30
0.0
 10
792.3105255304308
 20
-365.3691879370873
 30
0.0
 10
797.5303817041901
 20
-360.5626410949658
 30
0.0
 10
802.8084183383112
 20
-355.9707549833157
 30
0.0
 10
808.1356858426763
 20
-351.6012123152853
 30
0.0
 10
813.5031492717492
 20
-347.4613117761569
 30
0.0
 10
818.9017048573012
 20
-343.557954473214
 30
0.0
 10
824.3221971194843
 20
-339.8976310423699
 30
0.0
 10
829.7554366178296
 20
-336.4864095239112
 30
0.0
 10
835.1922184117176
 20
-333.3299241347176
 30
0.0
 10
840.6233412518633
 20
-330.4333651978029
 30
0.0
 10
846.0396223770568
 20
-327.8014727764481
 30
0.0
 10
851.4319110512
 20
-325.4385318292697
 30
0.0
 10
856.7911188933878
 20
-323.3483585403427
 30
0.0
 10
862.1082433690283
 20
-321.5343032422801
 30
0.0
 10
867.3744084337367
 20
-319.9992188645505
 30
0.0
 10
872.5808317063853
 20
-318.7455810038948
 30
0.0
 10
877.7190163224258
 20
-317.7750708902266
 30
0.0
 10
882.7801262488563
 20
-317.0901666692766
 30
0.0
 10
887.7573952079173
 20
-316.6882525462581
 30
0.0
 10
892.6371856412313
 20
-316.5836786053065
 30
0.0
 10
896.924626331929
 20
-316.7104351750926
 30
0.0
 10
899.5330791624126
 20
-316.9962465621571
 30
0.0
 10
900.591539595107
 20
-317.1122233744979
 30
0.0
  0
SPLINE
  5
1A9
330
1F
100
AcDbEntity
  8
0
  6
Continuous
 62
     7
370
    25
100
AcDbSpline
210
0.0
220
0.0
230
1.0
 70
     8
 71
     3
 72
    13
 73
     9
 74
     0
 42
0.00000001
 43
0.00000001
 40
0.0
 40
0.0
 40
0.0
 40
0.0
 40
0.0301718316562765
 40
0.2730495324891136
 40
0.4848307094694251
 40
0.7100393803269271
 40
0.9297739421877653
 40
1.0
 40
1.0
 40
1.0
 40
1.0
 10
961.3438835963362
 20
-448.3340428754163
 30
0.0
 10
961.3802701500098
 20
-448.3511715065375
 30
0.0
 10
961.7095617748159
 20
-448.5061824708403
 30
0.0
 10
962.1617433291739
 20
-449.017619198255
 30
0.0
 10
962.7128449110496
 20
-449.9099756746971
 30
0.0
 10
963.0724598631836
 20
-451.0375797224218
 30
0.0
 10
963.2116955307274
 20
-452.0818859817048
 30
0.0
 10
963.220836410133
 20
-452.7233386532479
 30
0.0
 10
963.2230502553314
 20
-452.878693171549
 30
0.0
  0
SPLINE
  5
1AA
330
1F
100
AcDbEntity
  8
0
  6
Continuous
 62
     7
370
    25
100
AcDbSpline
210
0.0
220
0.0
230
1.0
 70
     8
 71
     3
 72
    22
 73
    18
 74
     0
 42
0.00000001
 43
0.00000001
 40
0.0
 40
0.0
 40
0.0
 40
0.0
 40
0.0362934660826162
 40
0.105996849830319
 40
0.1759513347606916
 40
0.2461213226811133
 40
0.3164540845392451
 40
0.3868645620045572
 40
0.4572511292761187
 40
0.5274906044540767
 40
0.5974864248553847
 40
0.6671576272454676
 40
0.7364816323994464
 40
0.8056017084958208
 40
0.8748537277511643
 40
0.9452202796698033
 40
1.0
 40
1.0
 40
1.0
 40
1.0
 10
963.2230502553314
 20
-452.878693171549
 30
0.0
 10
963.2174052094507
 20
-453.1362885532308
 30
0.0
 10
963.2009185757643
 20
-453.8886085142663
 30
0.0
 10
963.0141608257788
 20
-455.2353827627339
 30
0.0
 10
962.5932969915985
 20
-456.9061981591306
 30
0.0
 10
961.9691545097884
 20
-458.6072029507418
 30
0.0
 10
961.161378035203
 20
-460.2846079233427
 30
0.0
 10
960.1918183092715
 20
-461.8889007934293
 30
0.0
 10
959.0897624501873
 20
-463.3717102145941
 30
0.0
 10
957.8894589364546
 20
-464.6890752647415
 30
0.0
 10
956.6295810632126
 20
-465.8028253749382
 30
0.0
 10
955.3516967743561
 20
-466.6828299399276
 30
0.0
 10
954.0994189489858
 20
-467.3077799473159
 30
0.0
 10
952.9141363724966
 20
-467.6709624747141
 30
0.0
 10
951.8382040642449
 20
-467.7670154884164
 30
0.0
 10
950.9551666333206
 20
-467.6561116397189
 30
0.0
 10
950.496844920284
 20
-467.4127576889977
 30
0.0
 10
950.296225798274
 20
-467.3062354480854
 30
0.0
  0
SPLINE
  5
1AB
330
1F
100
AcDbEntity
  8
0
  6
Continuous
 62
     7
370
    25
100
AcDbSpline
210
0.0
220
0.0
230
1.0
 70
     8
 71
     3
 72
    13
 73
     9
 74
     0
 42
0.00000001
 43
0.00000001
 40
0.0
 40
0.0
 40
0.0
 40
0.0
 40
0.0301718316562811
 40
0.2730495324891168
 40
0.484830709469433
 40
0.7100393803269552
 40
0.9297739421877969
 40
1.0
 40
1.0
 40
1.0
 40
1.0
 10
873.3266941523468
 20
-600.78428648438
 30
0.0
 10
873.3630807060205
 20
-600.8014151155012
 30
0.0
 10
873.6923723308264
 20
-600.956426079804
 30
0.0
 10
874.1445538851846
 20
-601.4678628072188
 30
0.0
 10
874.6956554670602
 20
-602.360219283661
 30
0.0
 10
875.055270419194
 20
-603.4878233313856
 30
0.0
 10
875.194506086738
 20
-604.5321295906687
 30
0.0
 10
875.2036469661435
 20
-605.1735822622118
 30
0.0
 10
875.205860811342
 20
-605.3289367805127
 30
0.0
  0
SPLINE
  5
1AC
330
1F
100
AcDbEntity
  8
0
  6
Continuous
 62
     7
370
    25
100
AcDbSpline
210
0.0
220
0.0
230
1.0
 70
     8
 71
     3
 72
    22
 73
    18
 74
     0
 42
0.00000001
 43
0.00000001
 40
0.0
 40
0.0
 40
0.0
 40
0.0
 40
0.0362934660826157
 40
0.1059968498303076
 40
0.1759513347606805
 40
0.2461213226811065
 40
0.316454084539242
 40
0.3868645620045499
 40
0.4572511292761073
 40
0.5274906044540656
 40
0.5974864248553708
 40
0.6671576272454534
 40
0.736481632399434
 40
0.8056017084958116
 40
0.8748537277511552
 40
0.9452202796697952
 40
1.0
 40
1.0
 40
1.0
 40
1.0
 10
875.205860811342
 20
-605.3289367805127
 30
0.0
 10
875.2002157654612
 20
-605.5865321621945
 30
0.0
 10
875.1837291317747
 20
-606.3388521232299
 30
0.0
 10
874.9969713817894
 20
-607.6856263716975
 30
0.0
 10
874.5761075476092
 20
-609.3564417680941
 30
0.0
 10
873.951965065799
 20
-611.0574465597053
 30
0.0
 10
873.1441885912137
 20
-612.7348515323063
 30
0.0
 10
872.1746288652821
 20
-614.3391444023929
 30
0.0
 10
871.0725730061979
 20
-615.8219538235577
 30
0.0
 10
869.8722694924653
 20
-617.139318873705
 30
0.0
 10
868.6123916192233
 20
-618.2530689839018
 30
0.0
 10
867.3345073303669
 20
-619.1330735488912
 30
0.0
 10
866.0822295049966
 20
-619.7580235562796
 30
0.0
 10
864.8969469285073
 20
-620.1212060836777
 30
0.0
 10
863.8210146202556
 20
-620.2172590973803
 30
0.0
 10
862.9379771893311
 20
-620.1063552486827
 30
0.0
 10
862.4796554762947
 20
-619.8630012979614
 30
0.0
 10
862.2790363542846
 20
-619.7564790570491
 30
0.0
  0
SPLINE
  5
1AD
330
1F
100
AcDbEntity
  8
0
  6
Continuous
 62
     7
370
    25
100
AcDbSpline
210
0.0
220
0.0
230
1.0
 70
     8
 71
     3
 72
    13
 73
     9
 74
     0
 42
0.00000001
 43
0.00000001
 40
0.0
 40
0.0
 40
0.0
 40
0.0
 40
0.0301718316562659
 40
0.2730495324891475
 40
0.484830709469478
 40
0.710039380326997
 40
0.929773942187851
 40
1.0
 40
1.0
 40
1.0
 40
1.0
 10
973.7237023084659
 20
-369.3176983265674
 30
0.0
 10
973.7600888621395
 20
-369.3348269576886
 30
0.0
 10
974.0893804869455
 20
-369.4898379219915
 30
0.0
 10
974.5415620413036
 20
-370.0012746494062
 30
0.0
 10
975.0926636231794
 20
-370.8936311258486
 30
0.0
 10
975.4522785753132
 20
-372.0212351735733
 30
0.0
 10
975.5915142428571
 20
-373.0655414328563
 30
0.0
 10
975.6006551222625
 20
-373.7069941043993
 30
0.0
 10
975.602868967461
 20
-373.8623486227002
 30
0.0
  0
SPLINE
  5
1AE
330
1F
100
AcDbEntity
  8
0
  6
Continuous
 62
     7
370
    25
100
AcDbSpline
210
0.0
220
0.0
230
1.0
 70
     8
 71
     3
 72
    22
 73
    18
 74
     0
 42
0.00000001
 43
0.00000001
 40
0.0
 40
0.0
 40
0.0
 40
0.0
 40
0.036293466082616
 40
0.1059968498303409
 40
0.1759513347607111
 40
0.2461213226811296
 40
0.316454084539266
 40
0.3868645620045735
 40
0.4572511292761304
 40
0.5274906044540907
 40
0.5974864248553978
 40
0.6671576272454781
 40
0.7364816323994579
 40
0.8056017084958327
 40
0.8748537277511744
 40
0.9452202796698139
 40
1.0
 40
1.0
 40
1.0
 40
1.0
 10
975.602868967461
 20
-373.8623486227002
 30
0.0
 10
975.5972239215802
 20
-374.119944004382
 30
0.0
 10
975.5807372878938
 20
-374.8722639654176
 30
0.0
 10
975.3939795379084
 20
-376.2190382138854
 30
0.0
 10
974.9731157037281
 20
-377.8898536102822
 30
0.0
 10
974.3489732219177
 20
-379.5908584018936
 30
0.0
 10
973.5411967473324
 20
-381.2682633744943
 30
0.0
 10
972.5716370214008
 20
-382.872556244581
 30
0.0
 10
971.4695811623166
 20
-384.3553656657456
 30
0.0
 10
970.269277648584
 20
-385.6727307158929
 30
0.0
 10
969.009399775342
 20
-386.7864808260897
 30
0.0
 10
967.7315154864856
 20
-387.6664853910789
 30
0.0
 10
966.4792376611151
 20
-388.2914353984672
 30
0.0
 10
965.293955084626
 20
-388.6546179258652
 30
0.0
 10
964.2180227763744
 20
-388.7506709395676
 30
0.0
 10
963.33498534545
 20
-388.6397670908701
 30
0.0
 10
962.8766636324136
 20
-388.3964131401488
 30
0.0
 10
962.6760445104036
 20
-388.2898908992366
 30
0.0
  0
SPLINE
  5
1AF
330
1F
100
AcDbEntity
  8
0
  6
Continuous
 62
     7
370
    25
100
AcDbSpline
210
0.0
220
0.0
230
1.0
 70
     8
 71
     3
 72
    13
 73
     9
 74
     0
 42
0.00000001
 43
0.00000001
 40
0.0
 40
0.0
 40
0.0
 40
0.0
 40
0.0301718316563
 40
0.2730495324891504
 40
0.484830709469464
 40
0.7100393803269762
 40
0.9297739421878268
 40
1.0
 40
1.0
 40
1.0
 40
1.0
 10
811.0891426355251
 20
-651.00901791993
 30
0.0
 10
811.1255291891988
 20
-651.026146551051
 30
0.0
 10
811.4548208140048
 20
-651.181157515354
 30
0.0
 10
811.9070023683629
 20
-651.6925942427688
 30
0.0
 10
812.4581039502386
 20
-652.584950719211
 30
0.0
 10
812.8177189023725
 20
-653.7125547669356
 30
0.0
 10
812.9569545699163
 20
-654.7568610262188
 30
0.0
 10
812.9660954493219
 20
-655.3983136977616
 30
0.0
 10
812.9683092945204
 20
-655.5536682160626
 30
0.0
  0
SPLINE
  5
1B0
330
1F
100
AcDbEntity
  8
0
  6
Continuous
 62
     7
370
    25
100
AcDbSpline
210
0.0
220
0.0
230
1.0
 70
     8
 71
     3
 72
    22
 73
    18
 74
     0
 42
0.00000001
 43
0.00000001
 40
0.0
 40
0.0
 40
0.0
 40
0.0
 40
0.0362934660826155
 40
0.1059968498303124
 40
0.1759513347606853
 40
0.2461213226811103
 40
0.3164540845392431
 40
0.3868645620045516
 40
0.4572511292761142
 40
0.5274906044540774
 40
0.5974864248553812
 40
0.6671576272454686
 40
0.7364816323994362
 40
0.8056017084958191
 40
0.8748537277511602
 40
0.9452202796698053
 40
1.0
 40
1.0
 40
1.0
 40
1.0
 10
812.9683092945204
 20
-655.5536682160626
 30
0.0
 10
812.9626642486395
 20
-655.8112635977444
 30
0.0
 10
812.9461776149532
 20
-656.5635835587799
 30
0.0
 10
812.7594198649676
 20
-657.9103578072475
 30
0.0
 10
812.3385560307876
 20
-659.5811732036442
 30
0.0
 10
811.7144135489773
 20
-661.2821779952554
 30
0.0
 10
810.906637074392
 20
-662.9595829678562
 30
0.0
 10
809.9370773484603
 20
-664.563875837943
 30
0.0
 10
808.8350214893761
 20
-666.0466852591077
 30
0.0
 10
807.6347179756434
 20
-667.364050309255
 30
0.0
 10
806.3748401024014
 20
-668.477800419452
 30
0.0
 10
805.0969558135452
 20
-669.3578049844411
 30
0.0
 10
803.8446779881747
 20
-669.9827549918296
 30
0.0
 10
802.6593954116855
 20
-670.3459375192276
 30
0.0
 10
801.5834631034338
 20
-670.44199053293
 30
0.0
 10
800.7004256725095
 20
-670.3310866842326
 30
0.0
 10
800.242103959473
 20
-670.0877327335113
 30
0.0
 10
800.0414848374628
 20
-669.9812104925991
 30
0.0
  0
SPLINE
  5
1B1
330
1F
100
AcDbEntity
  8
0
  6
Continuous
 62
     7
370
    25
100
AcDbSpline
210
0.0
220
0.0
230
1.0
 70
     8
 71
     3
 72
    13
 73
     9
 74
     0
 42
0.00000001
 43
0.00000001
 40
0.0
 40
0.0
 40
0.0
 40
0.0
 40
0.0301718316562775
 40
0.2730495324891144
 40
0.4848307094694257
 40
0.7100393803269274
 40
0.9297739421877653
 40
1.0
 40
1.0
 40
1.0
 40
1.0
 10
961.343883596347
 20
-304.5947882184282
 30
0.0
 10
961.3802701500207
 20
-304.6119168495493
 30
0.0
 10
961.7095617748267
 20
-304.7669278138522
 30
0.0
 10
962.1617433291848
 20
-305.2783645412669
 30
0.0
 10
962.7128449110603
 20
-306.1707210177092
 30
0.0
 10
963.0724598631942
 20
-307.2983250654337
 30
0.0
 10
963.2116955307381
 20
-308.3426313247167
 30
0.0
 10
963.2208364101438
 20
-308.9840839962598
 30
0.0
 10
963.2230502553422
 20
-309.1394385145609
 30
0.0
  0
SPLINE
  5
1B2
330
1F
100
AcDbEntity
  8
0
  6
Continuous
 62
     7
370
    25
100
AcDbSpline
210
0.0
220
0.0
230
1.0
 70
     8
 71
     3
 72
    22
 73
    18
 74
     0
 42
0.00000001
 43
0.00000001
 40
0.0
 40
0.0
 40
0.0
 40
0.0
 40
0.0362934660826163
 40
0.105996849830319
 40
0.1759513347606917
 40
0.2461213226811134
 40
0.3164540845392452
 40
0.3868645620045573
 40
0.4572511292761189
 40
0.5274906044540769
 40
0.597486424855385
 40
0.6671576272454678
 40
0.7364816323994468
 40
0.8056017084958211
 40
0.8748537277511645
 40
0.9452202796698037
 40
1.0
 40
1.0
 40
1.0
 40
1.0
 10
963.2230502553422
 20
-309.1394385145609
 30
0.0
 10
963.2174052094613
 20
-309.3970338962428
 30
0.0
 10
963.2009185757751
 20
-310.1493538572782
 30
0.0
 10
963.0141608257896
 20
-311.4961281057459
 30
0.0
 10
962.5932969916093
 20
-313.1669435021426
 30
0.0
 10
961.9691545097993
 20
-314.8679482937537
 30
0.0
 10
961.1613780352138
 20
-316.5453532663545
 30
0.0
 10
960.1918183092821
 20
-318.1496461364414
 30
0.0
 10
959.0897624501979
 20
-319.6324555576061
 30
0.0
 10
957.8894589364654
 20
-320.9498206077533
 30
0.0
 10
956.6295810632232
 20
-322.0635707179502
 30
0.0
 10
955.3516967743669
 20
-322.9435752829395
 30
0.0
 10
954.0994189489967
 20
-323.5685252903278
 30
0.0
 10
952.9141363725073
 20
-323.931707817726
 30
0.0
 10
951.8382040642557
 20
-324.0277608314284
 30
0.0
 10
950.9551666333315
 20
-323.9168569827308
 30
0.0
 10
950.4968449202948
 20
-323.6735030320096
 30
0.0
 10
950.2962257982848
 20
-323.5669807910973
 30
0.0
  0
SPLINE
  5
1B3
330
1F
100
AcDbEntity
  8
0
  6
Continuous
 62
     7
370
    25
100
AcDbSpline
210
0.0
220
0.0
230
1.0
 70
     8
 71
     3
 72
    13
 73
     9
 74
     0
 42
0.00000001
 43
0.00000001
 40
0.0
 40
0.0
 40
0.0
 40
0.0
 40
0.0301718316562776
 40
0.2730495324891234
 40
0.484830709469438
 40
0.7100393803269431
 40
0.9297739421878033
 40
1.0
 40
1.0
 40
1.0
 40
1.0
 10
748.8515911187056
 20
-672.6422339262707
 30
0.0
 10
748.8879776723793
 20
-672.659362557392
 30
0.0
 10
749.2172692971853
 20
-672.8143735216948
 30
0.0
 10
749.6694508515434
 20
-673.3258102491095
 30
0.0
 10
750.220552433419
 20
-674.2181667255518
 30
0.0
 10
750.5801673855528
 20
-675.3457707732764
 30
0.0
 10
750.7194030530968
 20
-676.3900770325592
 30
0.0
 10
750.7285439325025
 20
-677.0315297041025
 30
0.0
 10
750.7307577777008
 20
-677.1868842224035
 30
0.0
  0
SPLINE
  5
1B4
330
1F
100
AcDbEntity
  8
0
  6
Continuous
 62
     7
370
    25
100
AcDbSpline
210
0.0
220
0.0
230
1.0
 70
     8
 71
     3
 72
    22
 73
    18
 74
     0
 42
0.00000001
 43
0.00000001
 40
0.0
 40
0.0
 40
0.0
 40
0.0
 40
0.0362934660826155
 40
0.105996849830307
 40
0.1759513347606796
 40
0.2461213226811052
 40
0.3164540845392404
 40
0.3868645620045483
 40
0.4572511292761105
 40
0.5274906044540656
 40
0.5974864248553746
 40
0.6671576272454556
 40
0.7364816323994354
 40
0.8056017084958174
 40
0.8748537277511588
 40
0.9452202796698033
 40
1.0
 40
1.0
 40
1.0
 40
1.0
 10
750.7307577777008
 20
-677.1868842224035
 30
0.0
 10
750.72511273182
 20
-677.4444796040854
 30
0.0
 10
750.7086260981335
 20
-678.1967995651207
 30
0.0
 10
750.5218683481482
 20
-679.5435738135882
 30
0.0
 10
750.1010045139681
 20
-681.2143892099849
 30
0.0
 10
749.4768620321578
 20
-682.9153940015962
 30
0.0
 10
748.6690855575725
 20
-684.592798974197
 30
0.0
 10
747.6995258316409
 20
-686.1970918442837
 30
0.0
 10
746.5974699725567
 20
-687.6799012654486
 30
0.0
 10
745.397166458824
 20
-688.9972663155958
 30
0.0
 10
744.1372885855822
 20
-690.1110164257926
 30
0.0
 10
742.8594042967258
 20
-690.991020990782
 30
0.0
 10
741.6071264713553
 20
-691.6159709981703
 30
0.0
 10
740.421843894866
 20
-691.9791535255686
 30
0.0
 10
739.3459115866142
 20
-692.075206539271
 30
0.0
 10
738.4628741556899
 20
-691.9643026905735
 30
0.0
 10
738.0045524426534
 20
-691.7209487398521
 30
0.0
 10
737.8039333206433
 20
-691.6144264989399
 30
0.0
  0
SPLINE
  5
1B5
330
1F
100
AcDbEntity
  8
0
  6
Continuous
 62
     7
370
    25
100
AcDbSpline
210
0.0
220
0.0
230
1.0
 70
     8
 71
     3
 72
    13
 73
     9
 74
     0
 42
0.00000001
 43
0.00000001
 40
0.0
 40
0.0
 40
0.0
 40
0.0
 40
0.0301718316562703
 40
0.273049532489131
 40
0.4848307094694454
 40
0.7100393803269509
 40
0.9297739421878076
 40
1.0
 40
1.0
 40
1.0
 40
1.0
 10
926.0891426355637
 20
-264.0187889003215
 30
0.0
 10
926.1255291892375
 20
-264.0359175314426
 30
0.0
 10
926.4548208140434
 20
-264.1909284957455
 30
0.0
 10
926.9070023684015
 20
-264.7023652231601
 30
0.0
 10
927.4581039502772
 20
-265.5947216996024
 30
0.0
 10
927.817718902411
 20
-266.722325747327
 30
0.0
 10
927.956954569955
 20
-267.7666320066102
 30
0.0
 10
927.9660954493605
 20
-268.4080846781532
 30
0.0
 10
927.9683092945589
 20
-268.5634391964542
 30
0.0
  0
SPLINE
  5
1B6
330
1F
100
AcDbEntity
  8
0
  6
Continuous
 62
     7
370
    25
100
AcDbSpline
210
0.0
220
0.0
230
1.0
 70
     8
 71
     3
 72
    22
 73
    18
 74
     0
 42
0.00000001
 43
0.00000001
 40
0.0
 40
0.0
 40
0.0
 40
0.0
 40
0.0362934660826156
 40
0.1059968498303408
 40
0.1759513347607113
 40
0.2461213226811295
 40
0.3164540845392712
 40
0.386864562004578
 40
0.4572511292761334
 40
0.527490604454095
 40
0.597486424855398
 40
0.6671576272454784
 40
0.7364816323994637
 40
0.8056017084958377
 40
0.8748537277511784
 40
0.9452202796698203
 40
1.0
 40
1.0
 40
1.0
 40
1.0
 10
927.9683092945589
 20
-268.5634391964542
 30
0.0
 10
927.9626642486782
 20
-268.821034578136
 30
0.0
 10
927.9461776149918
 20
-269.5733545391715
 30
0.0
 10
927.7594198650063
 20
-270.9201287876393
 30
0.0
 10
927.3385560308259
 20
-272.5909441840364
 30
0.0
 10
926.7144135490157
 20
-274.2919489756475
 30
0.0
 10
925.9066370744304
 20
-275.9693539482483
 30
0.0
 10
924.9370773484987
 20
-277.573646818335
 30
0.0
 10
923.8350214894144
 20
-279.0564562394997
 30
0.0
 10
922.6347179756818
 20
-280.3738212896469
 30
0.0
 10
921.3748401024399
 20
-281.4875713998437
 30
0.0
 10
920.0969558135835
 20
-282.3675759648328
 30
0.0
 10
918.8446779882131
 20
-282.9925259722212
 30
0.0
 10
917.6593954117238
 20
-283.3557084996193
 30
0.0
 10
916.5834631034722
 20
-283.4517615133217
 30
0.0
 10
915.700425672548
 20
-283.3408576646241
 30
0.0
 10
915.2421039595116
 20
-283.0975037139029
 30
0.0
 10
915.0414848375016
 20
-282.9909814729906
 30
0.0
  0
SPLINE
  5
1B7
330
1F
100
AcDbEntity
  8
0
  6
Continuous
 62
     7
370
    25
100
AcDbSpline
210
0.0
220
0.0
230
1.0
 70
     8
 71
     3
 72
    13
 73
     9
 74
     0
 42
0.00000001
 43
0.00000001
 40
0.0
 40
0.0
 40
0.0
 40
0.0
 40
0.0301718316562679
 40
0.2730495324891292
 40
0.4848307094694441
 40
0.7100393803269501
 40
0.9297739421878074
 40
1.0
 40
1.0
 40
1.0
 40
1.0
 10
696.0891426355146
 20
-662.3904734720286
 30
0.0
 10
696.1255291891882
 20
-662.4076021031498
 30
0.0
 10
696.4548208139944
 20
-662.5626130674527
 30
0.0
 10
696.9070023683522
 20
-663.0740497948675
 30
0.0
 10
697.458103950228
 20
-663.9664062713097
 30
0.0
 10
697.8177189023619
 20
-665.0940103190344
 30
0.0
 10
697.9569545699059
 20
-666.1383165783174
 30
0.0
 10
697.9660954493113
 20
-666.7797692498604
 30
0.0
 10
697.9683092945097
 20
-666.9351237681614
 30
0.0
  0
SPLINE
  5
1B8
330
1F
100
AcDbEntity
  8
0
  6
Continuous
 62
     7
370
    25
100
AcDbSpline
210
0.0
220
0.0
230
1.0
 70
     8
 71
     3
 72
    22
 73
    18
 74
     0
 42
0.00000001
 43
0.00000001
 40
0.0
 40
0.0
 40
0.0
 40
0.0
 40
0.0362934660826156
 40
0.1059968498303408
 40
0.1759513347607113
 40
0.2461213226811296
 40
0.3164540845392703
 40
0.3868645620045779
 40
0.4572511292761333
 40
0.527490604454095
 40
0.597486424855398
 40
0.6671576272454784
 40
0.7364816323994637
 40
0.8056017084958378
 40
0.8748537277511785
 40
0.9452202796698203
 40
1.0
 40
1.0
 40
1.0
 40
1.0
 10
697.9683092945097
 20
-666.9351237681614
 30
0.0
 10
697.9626642486289
 20
-667.1927191498432
 30
0.0
 10
697.9461776149426
 20
-667.9450391108788
 30
0.0
 10
697.7594198649572
 20
-669.2918133593466
 30
0.0
 10
697.3385560307768
 20
-670.9626287557435
 30
0.0
 10
696.7144135489666
 20
-672.6636335473548
 30
0.0
 10
695.906637074381
 20
-674.3410385199555
 30
0.0
 10
694.9370773484494
 20
-675.9453313900423
 30
0.0
 10
693.8350214893653
 20
-677.4281408112068
 30
0.0
 10
692.6347179756327
 20
-678.7455058613541
 30
0.0
 10
691.3748401023907
 20
-679.8592559715509
 30
0.0
 10
690.0969558135342
 20
-680.7392605365402
 30
0.0
 10
688.844677988164
 20
-681.3642105439284
 30
0.0
 10
687.6593954116746
 20
-681.7273930713266
 30
0.0
 10
686.583463103423
 20
-681.8234460850289
 30
0.0
 10
685.7004256724988
 20
-681.7125422363313
 30
0.0
 10
685.2421039594624
 20
-681.4691882856101
 30
0.0
 10
685.0414848374523
 20
-681.3626660446979
 30
0.0
  0
SPLINE
  5
1B9
330
1F
100
AcDbEntity
  8
0
  6
Continuous
 62
     7
370
    25
100
AcDbSpline
210
0.0
220
0.0
230
1.0
 70
     8
 71
     3
 72
    13
 73
     9
 74
     0
 42
0.00000001
 43
0.00000001
 40
0.0
 40
0.0
 40
0.0
 40
0.0
 40
0.0301718316562766
 40
0.2730495324891227
 40
0.4848307094694374
 40
0.7100393803269427
 40
0.9297739421878032
 40
0.9999999999999999
 40
0.9999999999999999
 40
0.9999999999999999
 40
0.9999999999999999
 10
873.3266941523727
 20
-253.7670284460793
 30
0.0
 10
873.3630807060463
 20
-253.7841570772006
 30
0.0
 10
873.6923723308524
 20
-253.9391680415034
 30
0.0
 10
874.1445538852104
 20
-254.4506047689181
 30
0.0
 10
874.695655467086
 20
-255.3429612453604
 30
0.0
 10
875.0552704192199
 20
-256.470565293085
 30
0.0
 10
875.1945060867639
 20
-257.5148715523679
 30
0.0
 10
875.2036469661695
 20
-258.1563242239111
 30
0.0
 10
875.2058608113679
 20
-258.3116787422121
 30
0.0
  0
SPLINE
  5
1BA
330
1F
100
AcDbEntity
  8
0
  6
Continuous
 62
     7
370
    25
100
AcDbSpline
210
0.0
220
0.0
230
1.0
 70
     8
 71
     3
 72
    22
 73
    18
 74
     0
 42
0.00000001
 43
0.00000001
 40
0.0
 40
0.0
 40
0.0
 40
0.0
 40
0.0362934660826155
 40
0.105996849830307
 40
0.1759513347606796
 40
0.2461213226811052
 40
0.3164540845392404
 40
0.3868645620045483
 40
0.4572511292761105
 40
0.5274906044540656
 40
0.5974864248553746
 40
0.6671576272454556
 40
0.7364816323994354
 40
0.8056017084958174
 40
0.8748537277511588
 40
0.9452202796698033
 40
0.9999999999999999
 40
0.9999999999999999
 40
0.9999999999999999
 40
0.9999999999999999
 10
875.2058608113679
 20
-258.3116787422121
 30
0.0
 10
875.200215765487
 20
-258.5692741238939
 30
0.0
 10
875.1837291318008
 20
-259.3215940849293
 30
0.0
 10
874.9969713818153
 20
-260.6683683333969
 30
0.0
 10
874.5761075476352
 20
-262.3391837297935
 30
0.0
 10
873.9519650658249
 20
-264.0401885214049
 30
0.0
 10
873.1441885912395
 20
-265.7175934940056
 30
0.0
 10
872.1746288653079
 20
-267.3218863640925
 30
0.0
 10
871.0725730062237
 20
-268.804695785257
 30
0.0
 10
869.8722694924911
 20
-270.1220608354045
 30
0.0
 10
868.612391619249
 20
-271.2358109456013
 30
0.0
 10
867.3345073303927
 20
-272.1158155105906
 30
0.0
 10
866.0822295050224
 20
-272.740765517979
 30
0.0
 10
864.896946928533
 20
-273.1039480453772
 30
0.0
 10
863.8210146202814
 20
-273.2000010590796
 30
0.0
 10
862.937977189357
 20
-273.089097210382
 30
0.0
 10
862.4796554763204
 20
-272.8457432596608
 30
0.0
 10
862.2790363543104
 20
-272.7392210187485
 30
0.0
  0
SPLINE
  5
1BB
330
1F
100
AcDbEntity
  8
0
  6
Continuous
 62
     7
370
    25
100
AcDbSpline
210
0.0
220
0.0
230
1.0
 70
     8
 71
     3
 72
    13
 73
     9
 74
     0
 42
0.00000001
 43
0.00000001
 40
0.0
 40
0.0
 40
0.0
 40
0.0
 40
0.0301718316562904
 40
0.2730495324891312
 40
0.4848307094694319
 40
0.7100393803269458
 40
0.9297739421877917
 40
1.0
 40
1.0
 40
1.0
 40
1.0
 10
660.8344016747315
 20
-621.814474153922
 30
0.0
 10
660.8707882284051
 20
-621.8316027850433
 30
0.0
 10
661.200079853211
 20
-621.9866137493461
 30
0.0
 10
661.6522614075691
 20
-622.4980504767609
 30
0.0
 10
662.2033629894448
 20
-623.3904069532031
 30
0.0
 10
662.5629779415787
 20
-624.5180110009277
 30
0.0
 10
662.7022136091225
 20
-625.5623172602108
 30
0.0
 10
662.7113544885282
 20
-626.2037699317538
 30
0.0
 10
662.7135683337265
 20
-626.3591244500548
 30
0.0
  0
SPLINE
  5
1BC
330
1F
100
AcDbEntity
  8
0
  6
Continuous
 62
     7
370
    25
100
AcDbSpline
210
0.0
220
0.0
230
1.0
 70
     8
 71
     3
 72
    22
 73
    18
 74
     0
 42
0.00000001
 43
0.00000001
 40
0.0
 40
0.0
 40
0.0
 40
0.0
 40
0.0362934660826161
 40
0.105996849830341
 40
0.1759513347607113
 40
0.2461213226811299
 40
0.316454084539266
 40
0.3868645620045734
 40
0.4572511292761292
 40
0.5274906044540898
 40
0.5974864248553938
 40
0.6671576272454751
 40
0.736481632399456
 40
0.8056017084958316
 40
0.8748537277511768
 40
0.9452202796698161
 40
1.0
 40
1.0
 40
1.0
 40
1.0
 10
662.7135683337265
 20
-626.3591244500548
 30
0.0
 10
662.7079232878458
 20
-626.6167198317366
 30
0.0
 10
662.6914366541594
 20
-627.3690397927721
 30
0.0
 10
662.5046789041739
 20
-628.71581404124
 30
0.0
 10
662.0838150699935
 20
-630.3866294376369
 30
0.0
 10
661.4596725881833
 20
-632.0876342292482
 30
0.0
 10
660.6518961135979
 20
-633.7650392018488
 30
0.0
 10
659.6823363876663
 20
-635.3693320719356
 30
0.0
 10
658.5802805285821
 20
-636.8521414931002
 30
0.0
 10
657.3799770148494
 20
-638.1695065432474
 30
0.0
 10
656.1200991416075
 20
-639.2832566534443
 30
0.0
 10
654.8422148527511
 20
-640.1632612184335
 30
0.0
 10
653.5899370273808
 20
-640.7882112258218
 30
0.0
 10
652.4046544508915
 20
-641.15139375322
 30
0.0
 10
651.3287221426398
 20
-641.2474467669223
 30
0.0
 10
650.4456847117157
 20
-641.1365429182247
 30
0.0
 10
649.9873629986791
 20
-640.8931889675034
 30
0.0
 10
649.7867438766691
 20
-640.7866667265912
 30
0.0
  0
SPLINE
  5
1BD
330
1F
100
AcDbEntity
  8
0
  6
Continuous
 62
     7
370
    25
100
AcDbSpline
210
0.0
220
0.0
230
1.0
 70
     8
 71
     3
 72
    13
 73
     9
 74
     0
 42
0.00000001
 43
0.00000001
 40
0.0
 40
0.0
 40
0.0
 40
0.0
 40
0.0301718316562619
 40
0.2730495324891166
 40
0.4848307094694263
 40
0.7100393803269412
 40
0.9297739421877905
 40
1.0
 40
1.0
 40
1.0
 40
1.0
 10
811.0891426355532
 20
-275.4002444524202
 30
0.0
 10
811.1255291892269
 20
-275.4173730835413
 30
0.0
 10
811.4548208140328
 20
-275.5723840478444
 30
0.0
 10
811.9070023683909
 20
-276.0838207752589
 30
0.0
 10
812.4581039502666
 20
-276.9761772517012
 30
0.0
 10
812.8177189024005
 20
-278.1037812994257
 30
0.0
 10
812.9569545699444
 20
-279.1480875587088
 30
0.0
 10
812.96609544935
 20
-279.7895402302518
 30
0.0
 10
812.9683092945484
 20
-279.9448947485529
 30
0.0
  0
SPLINE
  5
1BE
330
1F
100
AcDbEntity
  8
0
  6
Continuous
 62
     7
370
    25
100
AcDbSpline
210
0.0
220
0.0
230
1.0
 70
     8
 71
     3
 72
    22
 73
    18
 74
     0
 42
0.00000001
 43
0.00000001
 40
0.0
 40
0.0
 40
0.0
 40
0.0
 40
0.0362934660826154
 40
0.1059968498303123
 40
0.1759513347606851
 40
0.2461213226811101
 40
0.3164540845392426
 40
0.3868645620045513
 40
0.4572511292761151
 40
0.5274906044540723
 40
0.5974864248553835
 40
0.6671576272454594
 40
0.7364816323994405
 40
0.8056017084958177
 40
0.874853727751154
 40
0.945220279669794
 40
1.0
 40
1.0
 40
1.0
 40
1.0
 10
812.9683092945484
 20
-279.9448947485529
 30
0.0
 10
812.9626642486676
 20
-280.2024901302348
 30
0.0
 10
812.9461776149813
 20
-280.9548100912702
 30
0.0
 10
812.7594198649958
 20
-282.3015843397378
 30
0.0
 10
812.3385560308157
 20
-283.9723997361344
 30
0.0
 10
811.7144135490053
 20
-285.6734045277457
 30
0.0
 10
810.90663707442
 20
-287.3508095003465
 30
0.0
 10
809.9370773484884
 20
-288.9551023704333
 30
0.0
 10
808.8350214894042
 20
-290.4379117915981
 30
0.0
 10
807.6347179756715
 20
-291.7552768417453
 30
0.0
 10
806.3748401024295
 20
-292.8690269519421
 30
0.0
 10
805.0969558135731
 20
-293.7490315169316
 30
0.0
 10
803.8446779882028
 20
-294.3739815243198
 30
0.0
 10
802.6593954117136
 20
-294.737164051718
 30
0.0
 10
801.583463103462
 20
-294.8332170654204
 30
0.0
 10
800.7004256725377
 20
-294.7223132167229
 30
0.0
 10
800.242103959501
 20
-294.4789592660017
 30
0.0
 10
800.0414848374908
 20
-294.3724370250894
 30
0.0
  0
SPLINE
  5
1BF
330
1F
100
AcDbEntity
  8
0
  6
Continuous
 62
     7
370
    25
100
AcDbSpline
210
0.0
220
0.0
230
1.0
 70
     8
 71
     3
 72
    13
 73
     9
 74
     0
 42
0.00000001
 43
0.00000001
 40
0.0
 40
0.0
 40
0.0
 40
0.0
 40
0.0301718316562968
 40
0.2730495324891331
 40
0.4848307094694504
 40
0.710039380326957
 40
0.9297739421878164
 40
1.0
 40
1.0
 40
1.0
 40
1.0
 10
648.4545829626124
 20
-557.0915640457828
 30
0.0
 10
648.4909695162861
 20
-557.108692676904
 30
0.0
 10
648.8202611410923
 20
-557.2637036412068
 30
0.0
 10
649.2724426954502
 20
-557.7751403686216
 30
0.0
 10
649.823544277326
 20
-558.6674968450637
 30
0.0
 10
650.1831592294596
 20
-559.7951008927885
 30
0.0
 10
650.3223948970037
 20
-560.8394071520714
 30
0.0
 10
650.3315357764093
 20
-561.4808598236145
 30
0.0
 10
650.3337496216076
 20
-561.6362143419154
 30
0.0
  0
SPLINE
  5
1C0
330
1F
100
AcDbEntity
  8
0
  6
Continuous
 62
     7
370
    25
100
AcDbSpline
210
0.0
220
0.0
230
1.0
 70
     8
 71
     3
 72
    22
 73
    18
 74
     0
 42
0.00000001
 43
0.00000001
 40
0.0
 40
0.0
 40
0.0
 40
0.0
 40
0.036293466082616
 40
0.1059968498303409
 40
0.1759513347607113
 40
0.2461213226811297
 40
0.3164540845392662
 40
0.3868645620045737
 40
0.4572511292761307
 40
0.527490604454091
 40
0.5974864248553983
 40
0.6671576272454786
 40
0.7364816323994583
 40
0.8056017084958342
 40
0.8748537277511764
 40
0.9452202796698136
 40
0.9999999999999999
 40
0.9999999999999999
 40
0.9999999999999999
 40
0.9999999999999999
 10
650.3337496216076
 20
-561.6362143419154
 30
0.0
 10
650.3281045757268
 20
-561.8938097235973
 30
0.0
 10
650.3116179420404
 20
-562.6461296846329
 30
0.0
 10
650.124860192055
 20
-563.9929039331006
 30
0.0
 10
649.7039963578748
 20
-565.6637193294976
 30
0.0
 10
649.0798538760644
 20
-567.3647241211088
 30
0.0
 10
648.2720774014791
 20
-569.0421290937095
 30
0.0
 10
647.3025176755474
 20
-570.6464219637963
 30
0.0
 10
646.2004618164632
 20
-572.1292313849608
 30
0.0
 10
645.0001583027305
 20
-573.4465964351082
 30
0.0
 10
643.7402804294885
 20
-574.5603465453048
 30
0.0
 10
642.4623961406321
 20
-575.4403511102943
 30
0.0
 10
641.2101183152618
 20
-576.0653011176825
 30
0.0
 10
640.0248357387726
 20
-576.4284836450806
 30
0.0
 10
638.9489034305209
 20
-576.524536658783
 30
0.0
 10
638.0658659995967
 20
-576.4136328100852
 30
0.0
 10
637.6075442865603
 20
-576.1702788593641
 30
0.0
 10
637.4069251645502
 20
-576.0637566184519
 30
0.0
  0
SPLINE
  5
1C1
330
1F
100
AcDbEntity
  8
0
  6
Continuous
 62
     7
370
    25
100
AcDbSpline
210
0.0
220
0.0
230
1.0
 70
     8
 71
     3
 72
    13
 73
     9
 74
     0
 42
0.00000001
 43
0.00000001
 40
0.0
 40
0.0
 40
0.0
 40
0.0
 40
0.030171831656163
 40
0.2730495324889924
 40
0.4848307094693214
 40
0.7100393803268487
 40
0.9297739421876989
 40
1.0
 40
1.0
 40
1.0
 40
1.0
 10
748.8515911187314
 20
-325.6249758879702
 30
0.0
 10
748.8879776724049
 20
-325.6421045190913
 30
0.0
 10
749.2172692972109
 20
-325.7971154833941
 30
0.0
 10
749.6694508515687
 20
-326.3085522108085
 30
0.0
 10
750.2205524334447
 20
-327.2009086872506
 30
0.0
 10
750.5801673855786
 20
-328.3285127349752
 30
0.0
 10
750.7194030531226
 20
-329.3728189942584
 30
0.0
 10
750.7285439325282
 20
-330.0142716658017
 30
0.0
 10
750.7307577777266
 20
-330.1696261841029
 30
0.0
  0
SPLINE
  5
1C2
330
1F
100
AcDbEntity
  8
0
  6
Continuous
 62
     7
370
    25
100
AcDbSpline
210
0.0
220
0.0
230
1.0
 70
     8
 71
     3
 72
    22
 73
    18
 74
     0
 42
0.00000001
 43
0.00000001
 40
0.0
 40
0.0
 40
0.0
 40
0.0
 40
0.0362934660826155
 40
0.105996849830307
 40
0.1759513347606797
 40
0.2461213226811026
 40
0.3164540845392371
 40
0.3868645620045457
 40
0.4572511292761018
 40
0.5274906044540586
 40
0.5974864248553696
 40
0.667157627245451
 40
0.7364816323994308
 40
0.8056017084958007
 40
0.874853727751143
 40
0.9452202796697827
 40
1.0
 40
1.0
 40
1.0
 40
1.0
 10
750.7307577777266
 20
-330.1696261841029
 30
0.0
 10
750.7251127318458
 20
-330.4272215657847
 30
0.0
 10
750.7086260981595
 20
-331.1795415268201
 30
0.0
 10
750.521868348174
 20
-332.5263157752877
 30
0.0
 10
750.1010045139939
 20
-334.1971311716843
 30
0.0
 10
749.4768620321837
 20
-335.8981359632955
 30
0.0
 10
748.6690855575984
 20
-337.5755409358964
 30
0.0
 10
747.6995258316667
 20
-339.1798338059832
 30
0.0
 10
746.5974699725825
 20
-340.6626432271478
 30
0.0
 10
745.39716645885
 20
-341.9800082772952
 30
0.0
 10
744.137288585608
 20
-343.093758387492
 30
0.0
 10
742.8594042967516
 20
-343.9737629524814
 30
0.0
 10
741.6071264713813
 20
-344.5987129598697
 30
0.0
 10
740.4218438948919
 20
-344.961895487268
 30
0.0
 10
739.3459115866403
 20
-345.0579485009704
 30
0.0
 10
738.4628741557159
 20
-344.9470446522729
 30
0.0
 10
738.0045524426793
 20
-344.7036907015517
 30
0.0
 10
737.8039333206692
 20
-344.5971684606394
 30
0.0
  0
SPLINE
  5
1C3
330
1F
100
AcDbEntity
  8
0
  6
Continuous
 62
     7
370
    25
100
AcDbSpline
210
0.0
220
0.0
230
1.0
 70
     8
 71
     3
 72
    13
 73
     9
 74
     0
 42
0.00000001
 43
0.00000001
 40
0.0
 40
0.0
 40
0.0
 40
0.0
 40
0.030171831656162
 40
0.2730495324890025
 40
0.4848307094693213
 40
0.71003938032685
 40
0.9297739421876867
 40
1.0
 40
1.0
 40
1.0
 40
1.0
 10
660.834401674742
 20
-478.0752194969338
 30
0.0
 10
660.8707882284154
 20
-478.0923481280549
 30
0.0
 10
661.2000798532215
 20
-478.2473590923577
 30
0.0
 10
661.6522614075794
 20
-478.7587958197722
 30
0.0
 10
662.2033629894553
 20
-479.6511522962143
 30
0.0
 10
662.5629779415892
 20
-480.7787563439388
 30
0.0
 10
662.7022136091332
 20
-481.8230626032221
 30
0.0
 10
662.7113544885387
 20
-482.4645152747652
 30
0.0
 10
662.7135683337373
 20
-482.6198697930665
 30
0.0
  0
SPLINE
  5
1C4
330
1F
100
AcDbEntity
  8
0
  6
Continuous
 62
     7
370
    25
100
AcDbSpline
210
0.0
220
0.0
230
1.0
 70
     8
 71
     3
 72
    22
 73
    18
 74
     0
 42
0.00000001
 43
0.00000001
 40
0.0
 40
0.0
 40
0.0
 40
0.0
 40
0.0362934660826163
 40
0.1059968498303191
 40
0.1759513347606918
 40
0.2461213226811129
 40
0.3164540845392524
 40
0.3868645620045571
 40
0.4572511292761115
 40
0.5274906044540736
 40
0.5974864248553798
 40
0.6671576272454597
 40
0.7364816323994395
 40
0.805601708495818
 40
0.8748537277511607
 40
0.9452202796697947
 40
1.0
 40
1.0
 40
1.0
 40
1.0
 10
662.7135683337373
 20
-482.6198697930665
 30
0.0
 10
662.7079232878565
 20
-482.8774651747484
 30
0.0
 10
662.69143665417
 20
-483.6297851357838
 30
0.0
 10
662.5046789041846
 20
-484.9765593842515
 30
0.0
 10
662.0838150700043
 20
-486.6473747806482
 30
0.0
 10
661.4596725881942
 20
-488.3483795722595
 30
0.0
 10
660.6518961136088
 20
-490.0257845448602
 30
0.0
 10
659.6823363876773
 20
-491.630077414947
 30
0.0
 10
658.5802805285931
 20
-493.1128868361116
 30
0.0
 10
657.3799770148605
 20
-494.4302518862589
 30
0.0
 10
656.1200991416184
 20
-495.5440019964557
 30
0.0
 10
654.842214852762
 20
-496.424006561445
 30
0.0
 10
653.5899370273918
 20
-497.0489565688334
 30
0.0
 10
652.4046544509024
 20
-497.4121390962316
 30
0.0
 10
651.3287221426508
 20
-497.5081921099339
 30
0.0
 10
650.4456847117265
 20
-497.3972882612365
 30
0.0
 10
649.9873629986898
 20
-497.1539343105152
 30
0.0
 10
649.7867438766798
 20
-497.047412069603
 30
0.0
  0
SPLINE
  5
1C5
330
1F
100
AcDbEntity
  8
0
  6
Continuous
 62
     7
370
    25
100
AcDbSpline
210
0.0
220
0.0
230
1.0
 70
     8
 71
     3
 72
    13
 73
     9
 74
     0
 42
0.00000001
 43
0.00000001
 40
0.0
 40
0.0
 40
0.0
 40
0.0
 40
0.0301718316562567
 40
0.273049532489118
 40
0.4848307094694321
 40
0.7100393803269341
 40
0.9297739421877934
 40
1.0
 40
1.0
 40
1.0
 40
1.0
 10
696.0891426355345
 20
-396.7949626799908
 30
0.0
 10
696.125529189208
 20
-396.812091311112
 30
0.0
 10
696.4548208140139
 20
-396.9671022754148
 30
0.0
 10
696.9070023683721
 20
-397.4785390028296
 30
0.0
 10
697.4581039502477
 20
-398.3708954792717
 30
0.0
 10
697.8177189023817
 20
-399.4984995269963
 30
0.0
 10
697.9569545699254
 20
-400.5428057862794
 30
0.0
 10
697.9660954493311
 20
-401.1842584578225
 30
0.0
 10
697.9683092945296
 20
-401.3396129761235
 30
0.0
  0
SPLINE
  5
1C6
330
1F
100
AcDbEntity
  8
0
  6
Continuous
 62
     7
370
    25
100
AcDbSpline
210
0.0
220
0.0
230
1.0
 70
     8
 71
     3
 72
    22
 73
    18
 74
     0
 42
0.00000001
 43
0.00000001
 40
0.0
 40
0.0
 40
0.0
 40
0.0
 40
0.0362934660826159
 40
0.1059968498303415
 40
0.1759513347607122
 40
0.2461213226811371
 40
0.3164540845392688
 40
0.3868645620045769
 40
0.4572511292761333
 40
0.5274906044540921
 40
0.5974864248554002
 40
0.6671576272454792
 40
0.7364816323994554
 40
0.8056017084958359
 40
0.8748537277511795
 40
0.9452202796698206
 40
1.0
 40
1.0
 40
1.0
 40
1.0
 10
697.9683092945296
 20
-401.3396129761235
 30
0.0
 10
697.9626642486487
 20
-401.5972083578053
 30
0.0
 10
697.9461776149624
 20
-402.3495283188408
 30
0.0
 10
697.759419864977
 20
-403.6963025673088
 30
0.0
 10
697.3385560307967
 20
-405.3671179637057
 30
0.0
 10
696.7144135489863
 20
-407.0681227553169
 30
0.0
 10
695.9066370744009
 20
-408.7455277279176
 30
0.0
 10
694.9370773484693
 20
-410.3498205980043
 30
0.0
 10
693.8350214893851
 20
-411.8326300191689
 30
0.0
 10
692.6347179756526
 20
-413.1499950693162
 30
0.0
 10
691.3748401024105
 20
-414.2637451795129
 30
0.0
 10
690.0969558135541
 20
-415.1437497445022
 30
0.0
 10
688.8446779881839
 20
-415.7686997518904
 30
0.0
 10
687.6593954116945
 20
-416.1318822792887
 30
0.0
 10
686.583463103443
 20
-416.2279352929909
 30
0.0
 10
685.7004256725187
 20
-416.1170314442934
 30
0.0
 10
685.2421039594823
 20
-415.8736774935722
 30
0.0
 10
685.0414848374721
 20
-415.76715525266
 30
0.0
  0
LWPOLYLINE
  5
1C7
330
1F
100
AcDbEntity
  8
0
  6
Continuous
 62
     7
370
    25
100
AcDbPolyline
 90
      170
 70
   128
 43
0.0
 10
985.7952571229
 20
-367.739287784
 10
985.6701646225
 20
-360.0416819257
 10
985.2950600104
 20
-352.4991435777
 10
984.6704617148
 20
-345.1220972061
 10
983.7972329869
 20
-337.9207385526
 10
982.6765807072
 20
-330.9050205422
 10
981.310053718
 20
-324.0846395283
 10
979.6995406824
 20
-317.4690218907
 10
977.8472674743
 20
-311.067311008
 10
975.7557941018
 20
-304.8883546201
 10
973.4280111692
 20
-298.9406926006
 10
970.8671358819
 20
-293.2325451532
 10
968.0767075998
 20
-287.7718014509
 10
965.0605829457
 20
-282.5660087327
 10
961.8229304751
 20
-277.6223618722
 10
958.3682249149
 20
-272.9476934339
 10
954.7012409788
 20
-268.54846423
 10
950.8270467684
 20
-264.4307543909
 10
946.7509967685
 20
-260.6002549618
 10
942.4787244467
 20
-257.0622600375
 10
938.0161344676
 20
-253.8216594451
 10
933.3693945318
 20
-250.8829319859
 10
928.5449268518
 20
-248.2501392457
 10
923.5493992757
 20
-245.9269199808
 10
918.389716072
 20
-243.916485089
 10
913.0730083868
 20
-242.2216131723
 10
907.6066243882
 20
-240.8446466959
 10
901.9981191104
 20
-239.7874887515
 10
896.2552440123
 20
-239.0516004264
 10
890.3859362634
 20
-238.6379987843
 10
884.398307775
 20
-238.54725546
 10
878.3006339882
 20
-238.7794958689
 10
872.1013424363
 20
-239.3343990338
 10
865.8090010978
 20
-240.2111980288
 10
859.4323065544
 20
-241.4086810387
 10
852.9800719712
 20
-242.9251930343
 10
846.4612149167
 20
-244.7586380597
 10
839.8847450377
 20
-246.9064821289
 10
833.2597516067
 20
-249.3657567284
 10
826.5953909606
 20
-252.1330629194
 10
819.9008738451
 20
-255.204576036
 10
813.1854526848
 20
-258.5760509709
 10
806.4584087956
 20
-262.2428280424
 10
799.7290395572
 20
-266.1998394349
 10
793.006645563
 20
-270.4416162029
 10
786.300517766
 20
-274.9622958293
 10
779.6199246379
 20
-279.7556303285
 10
772.9740993592
 20
-284.8149948811
 10
766.372227058
 20
-290.1333969903
 10
759.8234321155
 20
-295.7034861461
 10
753.3367655553
 20
-301.5175639844
 10
746.9211925339
 20
-307.5675949268
 10
740.5855799501
 20
-313.8452172866
 10
734.3386841902
 20
-320.3417548249
 10
728.189139026
 20
-327.0482287429
 10
722.1454436819
 20
-333.9553700903
 10
716.2159510883
 20
-341.0536325768
 10
710.4088563372
 20
-348.3332057652
 10
704.7321853558
 20
-355.7840286309
 10
699.1937838138
 20
-363.3958034665
 10
693.8013062803
 20
-371.1580101147
 10
688.5622056441
 20
-379.0599205079
 10
683.4837228134
 20
-387.0906134954
 10
678.5728767082
 20
-395.2389899373
 10
673.8364545595
 20
-403.4937880446
 10
669.2810025285
 20
-411.8435989439
 10
664.9128166596
 20
-420.2768824457
 10
660.7379341786
 20
-428.7819829939
 10
656.7621251484
 20
-437.3471457747
 10
652.9908844946
 20
-445.9605329628
 10
649.4294244111
 20
-454.6102400827
 10
646.0826671558
 20
-463.2843124611
 10
642.9552382482
 20
-471.9707617501
 10
640.0514600765
 20
-480.6575824956
 10
637.375345923
 20
-489.3327687301
 10
634.9305944183
 20
-497.9843305662
 10
632.7205844287
 20
-506.6003107674
 10
630.7483703868
 20
-515.1688012742
 10
629.0166780698
 20
-523.6779596622
 10
627.5279008322
 20
-532.1160255094
 10
626.2840962979
 20
-540.4713366498
 10
625.2869835168
 20
-548.7323452922
 10
624.5379405883
 20
-556.8876339798
 10
624.0380027571
 20
-564.9259313701
 10
623.7878609823
 20
-572.8361278133
 10
623.7878609823
 20
-580.6072907067
 10
624.0380027571
 20
-588.2286796042
 10
624.5379405883
 20
-595.6897610611
 10
625.2869835168
 20
-602.9802231917
 10
626.2840962979
 20
-610.0899899219
 10
627.5279008322
 20
-617.0092349147
 10
629.0166780698
 20
-623.7283951512
 10
630.7483703868
 20
-630.2381841477
 10
632.7205844287
 20
-636.5296047906
 10
634.9305944183
 20
-642.5939617706
 10
637.375345923
 20
-648.4228736011
 10
640.0514600765
 20
-654.0082842018
 10
642.9552382482
 20
-659.3424740329
 10
646.0826671558
 20
-664.4180707644
 10
649.4294244111
 20
-669.2280594652
 10
652.9908844946
 20
-673.7657922984
 10
656.7621251484
 20
-678.0249977091
 10
660.7379341786
 20
-681.9997890924
 10
664.9128166596
 20
-685.6846729292
 10
669.2810025285
 20
-689.0745563786
 10
673.8364545595
 20
-692.164754317
 10
678.5728767082
 20
-694.9509958128
 10
683.4837228134
 20
-697.4294300297
 10
688.5622056441
 20
-699.5966315489
 10
693.8013062803
 20
-701.4496051028
 10
699.1937838138
 20
-702.9857897154
 10
704.7321853558
 20
-704.2030622415
 10
710.4088563372
 20
-705.0997403008
 10
716.2159510883
 20
-705.6745846039
 10
722.1454436819
 20
-705.926800664
 10
728.189139026
 20
-705.8560398959
 10
734.3386841902
 20
-705.4624000974
 10
740.5855799501
 20
-704.7464253141
 10
746.9211925339
 20
-703.7091050874
 10
753.3367655553
 20
-702.3518730873
 10
759.8234321155
 20
-700.6766051305
 10
766.372227058
 20
-698.6856165878
 10
772.9740993592
 20
-696.3816591845
 10
779.6199246379
 20
-693.7679171969
 10
786.300517766
 20
-690.8480030515
 10
793.006645563
 20
-687.6259523322
 10
799.7290395572
 20
-684.1062182029
 10
806.4584087956
 20
-680.2936652526
 10
813.1854526848
 20
-676.1935627723
 10
819.9008738451
 20
-671.8115774725
 10
826.5953909606
 20
-667.1537656508
 10
833.2597516067
 20
-662.2265648221
 10
839.8847450377
 20
-657.0367848209
 10
846.4612149167
 20
-651.59159839
 10
852.9800719712
 20
-645.8985312666
 10
859.4323065544
 20
-639.9654517815
 10
865.8090010978
 20
-633.800559984
 10
872.1013424363
 20
-627.4123763091
 10
878.3006339882
 20
-620.809729801
 10
884.398307775
 20
-614.0017459109
 10
890.3859362634
 20
-606.9978338849
 10
896.2552440123
 20
-599.8076737591
 10
901.9981191105
 20
-592.4412029815
 10
907.6066243882
 20
-584.9086026771
 10
913.0730083868
 20
-577.2202835769
 10
918.389716072
 20
-569.3868716292
 10
923.5493992758
 20
-561.419193314
 10
928.5449268518
 20
-553.328260679
 10
933.3693945318
 20
-545.1252561207
 10
938.0161344676
 20
-536.8215169292
 10
942.4787244467
 20
-528.4285196187
 10
946.7509967685
 20
-519.9578640663
 10
950.8270467684
 20
-511.4212574796
 10
954.7012409788
 20
-502.8304982167
 10
958.3682249149
 20
-494.1974594794
 10
961.8229304751
 20
-485.5340729036
 10
965.0605829457
 20
-476.8523120685
 10
968.0767075998
 20
-468.1641759484
 10
970.8671358819
 20
-459.4816723287
 10
973.4280111692
 20
-450.8168012101
 10
975.7557941018
 20
-442.1815382239
 10
977.8472674743
 20
-433.5878180799
 10
979.6995406824
 20
-425.0475180722
 10
981.310053718
 20
-416.5724416634
 10
982.6765807072
 20
-408.1743021712
 10
983.7972329869
 20
-399.8647065797
 10
984.6704617148
 20
-391.6551394972
 10
985.2950600104
 20
-383.5569472837
 10
985.6701646225
 20
-375.581322369
 10
985.7952571229
 20
-367.739287784
  0
ARC
  5
1C8
330
1F
100
AcDbEntity
  8
0
  6
Continuous
 62
     7
370
    25
100
AcDbCircle
 10
721.5481121452
 20
-618.0462898788
 30
0.0
 40
89.05439515317202
100
AcDbArc
 50
214.9973067638
 51
265.0937323044
  0
ARC
  5
1C9
330
1F
100
AcDbEntity
  8
0
  6
Continuous
 62
     7
370
    25
100
AcDbCircle
 10
889.3410568346
 20
-327.349670403
 30
0.0
 40
89.17763620505552
100
AcDbArc
 50
34.8516590046
 51
86.0440050757
  0
ARC
  5
1CA
330
1F
100
AcDbEntity
  8
0
  6
Continuous
 62
     7
370
    25
100
AcDbCircle
 10
915.0596848525
 20
-343.9278656533
 30
0.0
 40
90.73971195716751
100
AcDbArc
 50
34.4156978385
 51
59.6983423184
  0
ARC
  5
1CB
330
1F
100
AcDbEntity
  8
0
  6
Continuous
 62
     7
370
    25
100
AcDbCircle
 10
748.920201453
 20
-631.5443641088
 30
0.0
 40
91.11042120009243
100
AcDbArc
 50
240.3613555911
 51
265.428975583
  0
LWPOLYLINE
  5
1CC
330
1F
100
AcDbEntity
  8
0
  6
Continuous
 62
     7
370
    25
100
AcDbPolyline
 90
       37
 70
   128
 43
0.0
 10
698.2612025133
 20
-400.9314089202
 10
698.1322920229
 20
-402.70731725
 10
697.7494774318
 20
-404.5781023879
 10
697.1243903675
 20
-406.4869214743
 10
696.2760237841
 20
-408.3757760071
 10
695.2301548712
 20
-410.1872740971
 10
694.0185618262
 20
-411.8663742915
 10
692.6780582909
 20
-413.3620579806
 10
691.2493747867
 20
-414.6288795724
 10
689.7759211391
 20
-415.6283473338
 10
688.3024674915
 20
-416.3300929426
 10
686.8737839873
 20
-416.7127942137
 10
685.533280452
 20
-416.7648229625
 10
684.321687407
 20
-416.4845983218
 10
683.2758184941
 20
-415.8806347756
 10
682.4274519108
 20
-414.9712834506
 10
681.8023648464
 20
-413.7841745267
 10
681.4195502553
 20
-412.3553777077
 10
681.2906397649
 20
-410.7283062621
 10
681.4195502553
 20
-408.9523979323
 10
681.8023648464
 20
-407.0816127944
 10
682.4274519108
 20
-405.172793708
 10
683.2758184941
 20
-403.2839391752
 10
684.321687407
 20
-401.4724410852
 10
685.533280452
 20
-399.7933408908
 10
686.8737839873
 20
-398.2976572017
 10
688.3024674915
 20
-397.0308356099
 10
689.7759211391
 20
-396.0313678485
 10
691.2493747867
 20
-395.3296222397
 10
692.6780582909
 20
-394.9469209686
 10
694.0185618262
 20
-394.8948922198
 10
695.2301548712
 20
-395.1751168605
 10
696.2760237841
 20
-395.7790804067
 10
697.1243903675
 20
-396.6884317317
 10
697.7494774318
 20
-397.8755406556
 10
698.1322920229
 20
-399.3043374746
 10
698.2612025133
 20
-400.9314089202
  0
LWPOLYLINE
  5
1CD
330
1F
100
AcDbEntity
  8
0
  6
Continuous
 62
     7
370
    25
100
AcDbPolyline
 90
       37
 70
   128
 43
0.0
 10
650.6266428404
 20
-561.228010286
 10
650.49773235
 20
-563.0039186158
 10
650.1149177588
 20
-564.8747037537
 10
649.4898306945
 20
-566.7835228401
 10
648.6414641112
 20
-568.6723773729
 10
647.5955951982
 20
-570.4838754629
 10
646.3840021533
 20
-572.1629756573
 10
645.043498618
 20
-573.6586593464
 10
643.6148151138
 20
-574.9254809382
 10
642.1413614662
 20
-575.9249486996
 10
640.6679078186
 20
-576.6266943084
 10
639.2392243144
 20
-577.0093955794
 10
637.8987207791
 20
-577.0614243282
 10
636.6871277341
 20
-576.7811996876
 10
635.6412588211
 20
-576.1772361414
 10
634.7928922378
 20
-575.2678848164
 10
634.1678051735
 20
-574.0807758925
 10
633.7849905823
 20
-572.6519790735
 10
633.6560800919
 20
-571.0249076279
 10
633.7849905823
 20
-569.2489992981
 10
634.1678051735
 20
-567.3782141602
 10
634.7928922378
 20
-565.4693950738
 10
635.6412588211
 20
-563.580540541
 10
636.6871277341
 20
-561.769042451
 10
637.8987207791
 20
-560.0899422566
 10
639.2392243144
 20
-558.5942585675
 10
640.6679078186
 20
-557.3274369757
 10
642.1413614662
 20
-556.3279692143
 10
643.6148151138
 20
-555.6262236055
 10
645.043498618
 20
-555.2435223344
 10
646.3840021533
 20
-555.1914935856
 10
647.5955951982
 20
-555.4717182263
 10
648.6414641112
 20
-556.0756817725
 10
649.4898306945
 20
-556.9850330975
 10
650.1149177588
 20
-558.1721420214
 10
650.49773235
 20
-559.6009388404
 10
650.6266428404
 20
-561.228010286
  0
LWPOLYLINE
  5
1CE
330
1F
100
AcDbEntity
  8
0
  6
Continuous
 62
     7
370
    25
100
AcDbPolyline
 90
       37
 70
   128
 43
0.0
 10
698.2612025133
 20
-666.5269197123
 10
698.1322920229
 20
-668.302828042
 10
697.7494774317
 20
-670.17361318
 10
697.1243903674
 20
-672.0824322663
 10
696.2760237841
 20
-673.9712867991
 10
695.2301548711
 20
-675.7827848891
 10
694.0185618262
 20
-677.4618850836
 10
692.6780582909
 20
-678.9575687727
 10
691.2493747867
 20
-680.2243903644
 10
689.7759211391
 20
-681.2238581258
 10
688.3024674915
 20
-681.9256037346
 10
686.8737839873
 20
-682.3083050057
 10
685.533280452
 20
-682.3603337545
 10
684.321687407
 20
-682.0801091138
 10
683.275818494
 20
-681.4761455677
 10
682.4274519107
 20
-680.5667942427
 10
681.8023648464
 20
-679.3796853187
 10
681.4195502552
 20
-677.9508884998
 10
681.2906397648
 20
-676.3238170541
 10
681.4195502552
 20
-674.5479087244
 10
681.8023648464
 20
-672.6771235864
 10
682.4274519107
 20
-670.7683045
 10
683.275818494
 20
-668.8794499673
 10
684.321687407
 20
-667.0679518773
 10
685.533280452
 20
-665.3888516828
 10
686.8737839873
 20
-663.8931679937
 10
688.3024674915
 20
-662.6263464019
 10
689.7759211391
 20
-661.6268786406
 10
691.2493747867
 20
-660.9251330317
 10
692.6780582909
 20
-660.5424317607
 10
694.0185618262
 20
-660.4904030119
 10
695.2301548711
 20
-660.7706276525
 10
696.2760237841
 20
-661.3745911987
 10
697.1243903674
 20
-662.2839425237
 10
697.7494774317
 20
-663.4710514477
 10
698.1322920229
 20
-664.8998482666
 10
698.2612025133
 20
-666.5269197123
  0
LWPOLYLINE
  5
1CF
330
1F
100
AcDbEntity
  8
0
  6
Continuous
 62
     7
370
    25
100
AcDbPolyline
 90
       37
 70
   128
 43
0.0
 10
813.2612025133
 20
-655.1454641602
 10
813.1322920229
 20
-656.9213724899
 10
812.7494774318
 20
-658.7921576279
 10
812.1243903674
 20
-660.7009767142
 10
811.2760237841
 20
-662.589831247
 10
810.2301548712
 20
-664.401329337
 10
809.0185618262
 20
-666.0804295315
 10
807.6780582909
 20
-667.5761132206
 10
806.2493747867
 20
-668.8429348123
 10
804.7759211391
 20
-669.8424025737
 10
803.3024674915
 20
-670.5441481825
 10
801.8737839873
 20
-670.9268494536
 10
800.533280452
 20
-670.9788782024
 10
799.321687407
 20
-670.6986535618
 10
798.2758184941
 20
-670.0946900156
 10
797.4274519107
 20
-669.1853386906
 10
796.8023648464
 20
-667.9982297666
 10
796.4195502553
 20
-666.5694329477
 10
796.2906397649
 20
-664.942361502
 10
796.4195502553
 20
-663.1664531723
 10
796.8023648464
 20
-661.2956680343
 10
797.4274519107
 20
-659.3868489479
 10
798.2758184941
 20
-657.4979944152
 10
799.321687407
 20
-655.6864963252
 10
800.533280452
 20
-654.0073961307
 10
801.8737839873
 20
-652.5117124416
 10
803.3024674915
 20
-651.2448908498
 10
804.7759211391
 20
-650.2454230885
 10
806.2493747867
 20
-649.5436774796
 10
807.6780582909
 20
-649.1609762086
 10
809.0185618262
 20
-649.1089474598
 10
810.2301548712
 20
-649.3891721004
 10
811.2760237841
 20
-649.9931356466
 10
812.1243903674
 20
-650.9024869716
 10
812.7494774318
 20
-652.0895958956
 10
813.1322920229
 20
-653.5183927145
 10
813.2612025133
 20
-655.1454641602
  0
LWPOLYLINE
  5
1D0
330
1F
100
AcDbEntity
  8
0
  6
Continuous
 62
     7
370
    25
100
AcDbPolyline
 90
       37
 70
   128
 43
0.0
 10
928.2612025134
 20
-533.7507459326
 10
928.132292023
 20
-535.5266542623
 10
927.7494774318
 20
-537.3974394003
 10
927.1243903675
 20
-539.3062584867
 10
926.2760237842
 20
-541.1951130194
 10
925.2301548712
 20
-543.0066111095
 10
924.0185618262
 20
-544.6857113039
 10
922.6780582909
 20
-546.181394993
 10
921.2493747867
 20
-547.4482165848
 10
919.7759211391
 20
-548.4476843461
 10
918.3024674915
 20
-549.149429955
 10
916.8737839873
 20
-549.532131226
 10
915.533280452
 20
-549.5841599748
 10
914.321687407
 20
-549.3039353342
 10
913.2758184941
 20
-548.699971788
 10
912.4274519108
 20
-547.790620463
 10
911.8023648464
 20
-546.603511539
 10
911.4195502553
 20
-545.1747147201
 10
911.2906397649
 20
-543.5476432745
 10
911.4195502553
 20
-541.7717349447
 10
911.8023648464
 20
-539.9009498067
 10
912.4274519108
 20
-537.9921307204
 10
913.2758184941
 20
-536.1032761876
 10
914.321687407
 20
-534.2917780976
 10
915.533280452
 20
-532.6126779031
 10
916.8737839873
 20
-531.116994214
 10
918.3024674915
 20
-529.8501726223
 10
919.7759211391
 20
-528.8507048609
 10
921.2493747867
 20
-528.1489592521
 10
922.6780582909
 20
-527.766257981
 10
924.0185618262
 20
-527.7142292322
 10
925.2301548712
 20
-527.9944538729
 10
926.2760237842
 20
-528.598417419
 10
927.1243903675
 20
-529.507768744
 10
927.7494774318
 20
-530.694877668
 10
928.132292023
 20
-532.123674487
 10
928.2612025134
 20
-533.7507459326
  0
LWPOLYLINE
  5
1D1
330
1F
100
AcDbEntity
  8
0
  6
Continuous
 62
     7
370
    25
100
AcDbPolyline
 90
       37
 70
   128
 43
0.0
 10
963.5159434742
 20
-308.7312344586
 10
963.3870329838
 20
-310.5071427884
 10
963.0042183926
 20
-312.3779279264
 10
962.3791313283
 20
-314.2867470127
 10
961.530764745
 20
-316.1756015455
 10
960.484895832
 20
-317.9870996355
 10
959.273302787
 20
-319.66619983
 10
957.9327992517
 20
-321.1618835191
 10
956.5041157475
 20
-322.4287051108
 10
955.0306620999
 20
-323.4281728722
 10
953.5572084523
 20
-324.129918481
 10
952.1285249481
 20
-324.5126197521
 10
950.7880214128
 20
-324.5646485009
 10
949.5764283679
 20
-324.2844238602
 10
948.5305594549
 20
-323.6804603141
 10
947.6821928716
 20
-322.7711089891
 10
947.0571058073
 20
-321.5840000651
 10
946.6742912161
 20
-320.1552032462
 10
946.5453807257
 20
-318.5281318005
 10
946.6742912161
 20
-316.7522234708
 10
947.0571058073
 20
-314.8814383328
 10
947.6821928716
 20
-312.9726192464
 10
948.5305594549
 20
-311.0837647137
 10
949.5764283679
 20
-309.2722666236
 10
950.7880214128
 20
-307.5931664292
 10
952.1285249481
 20
-306.0974827401
 10
953.5572084523
 20
-304.8306611483
 10
955.0306620999
 20
-303.831193387
 10
956.5041157475
 20
-303.1294477781
 10
957.9327992517
 20
-302.7467465071
 10
959.273302787
 20
-302.6947177583
 10
960.484895832
 20
-302.9749423989
 10
961.530764745
 20
-303.5789059451
 10
962.3791313283
 20
-304.4882572701
 10
963.0042183926
 20
-305.6753661941
 10
963.3870329838
 20
-307.104163013
 10
963.5159434742
 20
-308.7312344586
  0
LWPOLYLINE
  5
1D2
330
1F
100
AcDbEntity
  8
0
  6
Continuous
 62
     7
370
    25
100
AcDbPolyline
 90
       37
 70
   128
 43
0.0
 10
875.4987540302
 20
-257.9034746863
 10
875.3698435398
 20
-259.6793830161
 10
874.9870289486
 20
-261.550168154
 10
874.3619418843
 20
-263.4589872404
 10
873.513575301
 20
-265.3478417732
 10
872.467706388
 20
-267.1593398632
 10
871.2561133431
 20
-268.8384400576
 10
869.9156098077
 20
-270.3341237467
 10
868.4869263036
 20
-271.6009453385
 10
867.0134726559
 20
-272.6004130999
 10
865.5400190083
 20
-273.3021587087
 10
864.1113355042
 20
-273.6848599797
 10
862.7708319688
 20
-273.7368887285
 10
861.5592389239
 20
-273.4566640879
 10
860.5133700109
 20
-272.8527005417
 10
859.6650034276
 20
-271.9433492167
 10
859.0399163633
 20
-270.7562402928
 10
858.6571017721
 20
-269.3274434738
 10
858.5281912817
 20
-267.7003720282
 10
858.6571017721
 20
-265.9244636984
 10
859.0399163633
 20
-264.0536785605
 10
859.6650034276
 20
-262.1448594741
 10
860.5133700109
 20
-260.2560049413
 10
861.5592389239
 20
-258.4445068513
 10
862.7708319688
 20
-256.7654066569
 10
864.1113355042
 20
-255.2697229677
 10
865.5400190083
 20
-254.002901376
 10
867.0134726559
 20
-253.0034336146
 10
868.4869263036
 20
-252.3016880058
 10
869.9156098077
 20
-251.9189867347
 10
871.2561133431
 20
-251.8669579859
 10
872.467706388
 20
-252.1471826266
 10
873.513575301
 20
-252.7511461728
 10
874.3619418843
 20
-253.6604974978
 10
874.9870289486
 20
-254.8476064217
 10
875.3698435398
 20
-256.2764032407
 10
875.4987540302
 20
-257.9034746863
  0
LWPOLYLINE
  5
1D3
330
1F
100
AcDbEntity
  8
0
  6
Continuous
 62
     7
370
    25
100
AcDbPolyline
 90
       37
 70
   128
 43
0.0
 10
813.2612025134
 20
-279.5366906926
 10
813.132292023
 20
-281.3125990224
 10
812.7494774318
 20
-283.1833841603
 10
812.1243903675
 20
-285.0922032467
 10
811.2760237842
 20
-286.9810577795
 10
810.2301548712
 20
-288.7925558695
 10
809.0185618262
 20
-290.4716560639
 10
807.6780582909
 20
-291.9673397531
 10
806.2493747868
 20
-293.2341613448
 10
804.7759211391
 20
-294.2336291062
 10
803.3024674915
 20
-294.935374715
 10
801.8737839873
 20
-295.3180759861
 10
800.533280452
 20
-295.3701047349
 10
799.3216874071
 20
-295.0898800942
 10
798.2758184941
 20
-294.4859165481
 10
797.4274519108
 20
-293.5765652231
 10
796.8023648465
 20
-292.3894562991
 10
796.4195502553
 20
-290.9606594801
 10
796.2906397649
 20
-289.3335880345
 10
796.4195502553
 20
-287.5576797048
 10
796.8023648465
 20
-285.6868945668
 10
797.4274519108
 20
-283.7780754804
 10
798.2758184941
 20
-281.8892209476
 10
799.3216874071
 20
-280.0777228576
 10
800.533280452
 20
-278.3986226632
 10
801.8737839873
 20
-276.9029389741
 10
803.3024674915
 20
-275.6361173823
 10
804.7759211391
 20
-274.6366496209
 10
806.2493747868
 20
-273.9349040121
 10
807.6780582909
 20
-273.5522027411
 10
809.0185618262
 20
-273.5001739923
 10
810.2301548712
 20
-273.7803986329
 10
811.2760237842
 20
-274.3843621791
 10
812.1243903675
 20
-275.2937135041
 10
812.7494774318
 20
-276.4808224281
 10
813.132292023
 20
-277.909619247
 10
813.2612025134
 20
-279.5366906926
  0
LWPOLYLINE
  5
1D4
330
1F
100
AcDbEntity
  8
0
  6
Continuous
 62
     7
370
    25
100
AcDbPolyline
 90
      146
 70
   128
 43
0.0
 10
938.4191027834
 20
-395.0889595301
 10
938.2936522287
 20
-401.8465997103
 10
937.9175360848
 20
-408.7363952546
 10
937.2914604706
 20
-415.7454112918
 10
936.4166007776
 20
-422.8604891266
 10
935.2945994634
 20
-430.0682709437
 10
933.9275629683
 20
-437.355224886
 10
932.3180577604
 20
-444.7076704589
 10
930.4691055177
 20
-452.111804214
 10
928.3841774547
 20
-459.5537256638
 10
926.0671878061
 20
-467.0194633784
 10
923.5224864777
 20
-474.4950012153
 10
920.7548508806
 20
-481.9663046334
 10
917.7694769612
 20
-489.4193470411
 10
914.5719694472
 20
-496.84013613
 10
911.168331325
 20
-504.2147401441
 10
907.5649525693
 20
-511.5293140348
 10
903.7685981473
 20
-518.770125454
 10
899.7863953178
 20
-525.9235805348
 10
895.6258202504
 20
-532.9762494127
 10
891.2946839902
 20
-539.9148914389
 10
886.8011177929
 20
-546.7264800379
 10
882.1535578596
 20
-553.3982271638
 10
877.3607294983
 20
-559.9176073086
 10
872.4316307436
 20
-566.2723810173
 10
867.3755154633
 20
-572.4506178661
 10
862.2018759855
 20
-578.440718861
 10
856.9204252779
 20
-584.2314382132
 10
851.5410787122
 20
-589.8119044522
 10
846.0739354495
 20
-595.1716408357
 10
840.5292594802
 20
-600.3005850188
 10
834.9174603539
 20
-605.1891079445
 10
829.2490736371
 20
-609.828031922
 10
823.5347411337
 20
-614.2086478562
 10
817.7851909058
 20
-618.3227315983
 10
812.0112171332
 20
-622.162559386
 10
806.2236598484
 20
-625.7209223438
 10
800.4333845855
 20
-628.9911400172
 10
794.6512619812
 20
-631.9670729141
 10
788.8881473665
 20
-634.6431340314
 10
783.1548603871
 20
-637.014299344
 10
777.46216469
 20
-639.0761172369
 10
771.8207477167
 20
-640.8247168623
 10
766.2412006381
 20
-642.2568154072
 10
760.7339984709
 20
-643.3697242562
 10
755.3094804116
 20
-644.1613540391
 10
749.9778304261
 20
-644.6302185539
 10
744.7490581302
 20
-644.7754375563
 10
739.6329799975
 20
-644.5967384129
 10
734.6392009301
 20
-644.0944566126
 10
729.7770962265
 20
-643.269535137
 10
725.0557939802
 20
-642.1235226901
 10
720.4841579428
 20
-640.6585707903
 10
716.0707708834
 20
-638.8774297319
 10
711.8239184749
 20
-636.7834434211
 10
707.7515737391
 20
-634.3805430984
 10
703.8613820777
 20
-631.6732399581
 10
700.160646919
 20
-628.6666166788
 10
696.6563160066
 20
-625.3663178818
 10
693.3549683556
 20
-621.7785395331
 10
690.2628019014
 20
-617.9100173117
 10
687.3856218632
 20
-613.7680139638
 10
684.7288298461
 20
-609.360305668
 10
682.2974136995
 20
-604.695167436
 10
680.095938153
 20
-599.7813575774
 10
678.128536247
 20
-594.6281012568
 10
676.398901573
 20
-589.2450731745
 10
674.9102813394
 20
-583.6423794032
 10
673.6654702751
 20
-577.8305384151
 10
672.6668053829
 20
-571.8204613343
 10
671.9161615517
 20
-565.6234314527
 10
671.4149480369
 20
-559.2510830462
 10
671.1641058144
 20
-552.7153795332
 10
671.1641058144
 20
-546.0285910142
 10
671.4149480369
 20
-539.2032712358
 10
671.9161615517
 20
-532.2522340229
 10
672.6668053829
 20
-525.1885292214
 10
673.6654702751
 20
-518.0254181991
 10
674.9102813394
 20
-510.7763489484
 10
676.398901573
 20
-503.4549308395
 10
678.128536247
 20
-496.0749090698
 10
680.095938153
 20
-488.6501388591
 10
682.2974136995
 20
-481.1945594376
 10
684.7288298461
 20
-473.7221678767
 10
687.3856218632
 20
-466.2469928108
 10
690.2628019014
 20
-458.7830681
 10
693.3549683556
 20
-451.3444064831
 10
696.6563160066
 20
-443.9449732699
 10
700.160646919
 20
-436.5986601233
 10
703.8613820777
 20
-429.3192589784
 10
707.7515737391
 20
-422.1204361504
 10
711.8239184749
 20
-415.015706677
 10
716.0707708834
 20
-408.0184089453
 10
720.4841579428
 20
-401.1416796508
 10
725.0557939802
 20
-394.398429134
 10
729.7770962265
 20
-387.8013171434
 10
734.6392009301
 20
-381.3627290673
 10
739.6329799975
 20
-375.0947526821
 10
744.7490581302
 20
-369.0091554585
 10
749.9778304261
 20
-363.1173624695
 10
755.3094804116
 20
-357.4304349407
 10
760.7339984709
 20
-351.9590494844
 10
766.2412006381
 20
-346.7134780551
 10
771.8207477167
 20
-341.7035686651
 10
777.46216469
 20
-336.9387268956
 10
783.1548603871
 20
-332.4278982394
 10
788.8881473665
 20
-328.1795513058
 10
794.6512619812
 20
-324.2016619224
 10
800.4333845855
 20
-320.5016981608
 10
806.2236598484
 20
-317.0866063164
 10
812.0112171332
 20
-313.9627978672
 10
817.7851909058
 20
-311.1361374373
 10
823.5347411337
 20
-308.6119317863
 10
829.2490736371
 20
-306.3949198464
 10
834.9174603539
 20
-304.489263826
 10
840.5292594802
 20
-302.8985413952
 10
846.0739354495
 20
-301.625738969
 10
851.5410787122
 20
-300.6732461011
 10
856.9204252779
 20
-300.0428509972
 10
862.2018759855
 20
-299.7357371584
 10
867.3755154633
 20
-299.7524811588
 10
872.4316307436
 20
-300.0930515632
 10
877.3607294983
 20
-300.7568089863
 10
882.1535578596
 20
-301.7425072929
 10
886.8011177929
 20
-303.0482959374
 10
891.2946839902
 20
-304.6717234381
 10
895.6258202504
 20
-306.6097419795
 10
899.7863953178
 20
-308.8587131343
 10
903.7685981473
 20
-311.414414694
 10
907.5649525693
 20
-314.2720485962
 10
911.168331325
 20
-317.4262499316
 10
914.5719694472
 20
-320.8710970169
 10
917.7694769612
 20
-324.6001225117
 10
920.7548508806
 20
-328.6063255601
 10
923.5224864777
 20
-332.8821849346
 10
926.0671878061
 20
-337.419673156
 10
928.3841774547
 20
-342.2102715642
 10
930.4691055177
 20
-347.2449863113
 10
932.3180577604
 20
-352.5143652464
 10
933.9275629683
 20
-358.0085156612
 10
935.2945994634
 20
-363.7171228624
 10
936.4166007776
 20
-369.6294695363
 10
937.2914604706
 20
-375.7344558699
 10
937.9175360848
 20
-382.0206203892
 10
938.2936522287
 20
-388.4761614772
 10
938.4191027834
 20
-395.0889595301
  0
LWPOLYLINE
  5
1D5
330
1F
100
AcDbEntity
  8
0
  6
Continuous
 62
     7
370
    25
100
AcDbPolyline
 90
       37
 70
   128
 43
0.0
 10
975.8957621863
 20
-373.4541445668
 10
975.7668516959
 20
-375.2300528966
 10
975.3840371047
 20
-377.1008380345
 10
974.7589500404
 20
-379.0096571209
 10
973.9105834571
 20
-380.8985116537
 10
972.8647145441
 20
-382.7100097437
 10
971.6531214992
 20
-384.3891099381
 10
970.3126179638
 20
-385.8847936272
 10
968.8839344597
 20
-387.151615219
 10
967.410480812
 20
-388.1510829804
 10
965.9370271644
 20
-388.8528285892
 10
964.5083436603
 20
-389.2355298602
 10
963.1678401249
 20
-389.287558609
 10
961.95624708
 20
-389.0073339684
 10
960.910378167
 20
-388.4033704222
 10
960.0620115837
 20
-387.4940190972
 10
959.4369245194
 20
-386.3069101733
 10
959.0541099282
 20
-384.8781133543
 10
958.9251994378
 20
-383.2510419087
 10
959.0541099282
 20
-381.4751335789
 10
959.4369245194
 20
-379.604348441
 10
960.0620115837
 20
-377.6955293546
 10
960.910378167
 20
-375.8066748218
 10
961.95624708
 20
-373.9951767318
 10
963.1678401249
 20
-372.3160765374
 10
964.5083436603
 20
-370.8203928482
 10
965.9370271644
 20
-369.5535712565
 10
967.410480812
 20
-368.5541034951
 10
968.8839344597
 20
-367.8523578863
 10
970.3126179638
 20
-367.4696566152
 10
971.6531214992
 20
-367.4176278664
 10
972.8647145441
 20
-367.6978525071
 10
973.9105834571
 20
-368.3018160532
 10
974.7589500404
 20
-369.2111673782
 10
975.3840371047
 20
-370.3982763022
 10
975.7668516959
 20
-371.8270731212
 10
975.8957621863
 20
-373.4541445668
  0
LWPOLYLINE
  5
1D6
330
1F
100
AcDbEntity
  8
0
  6
Continuous
 62
     7
370
    25
100
AcDbPolyline
 90
       37
 70
   128
 43
0.0
 10
928.2612025134
 20
-268.1552351405
 10
928.132292023
 20
-269.9311434703
 10
927.7494774318
 20
-271.8019286083
 10
927.1243903675
 20
-273.7107476946
 10
926.2760237842
 20
-275.5996022274
 10
925.2301548712
 20
-277.4111003174
 10
924.0185618263
 20
-279.0902005118
 10
922.6780582909
 20
-280.585884201
 10
921.2493747868
 20
-281.8527057927
 10
919.7759211391
 20
-282.8521735541
 10
918.3024674915
 20
-283.5539191629
 10
916.8737839874
 20
-283.936620434
 10
915.533280452
 20
-283.9886491828
 10
914.3216874071
 20
-283.7084245421
 10
913.2758184941
 20
-283.104460996
 10
912.4274519108
 20
-282.195109671
 10
911.8023648465
 20
-281.008000747
 10
911.4195502553
 20
-279.579203928
 10
911.2906397649
 20
-277.9521324824
 10
911.4195502553
 20
-276.1762241527
 10
911.8023648465
 20
-274.3054390147
 10
912.4274519108
 20
-272.3966199283
 10
913.2758184941
 20
-270.5077653956
 10
914.3216874071
 20
-268.6962673055
 10
915.533280452
 20
-267.0171671111
 10
916.8737839874
 20
-265.521483422
 10
918.3024674915
 20
-264.2546618302
 10
919.7759211391
 20
-263.2551940689
 10
921.2493747868
 20
-262.55344846
 10
922.6780582909
 20
-262.170747189
 10
924.0185618263
 20
-262.1187184402
 10
925.2301548712
 20
-262.3989430808
 10
926.2760237842
 20
-263.002906627
 10
927.1243903675
 20
-263.912257952
 10
927.7494774318
 20
-265.099366876
 10
928.132292023
 20
-266.5281636949
 10
928.2612025134
 20
-268.1552351405
  0
LWPOLYLINE
  5
1D7
330
1F
100
AcDbEntity
  8
0
  6
Continuous
 62
     7
370
    25
100
AcDbPolyline
 90
       37
 70
   128
 43
0.0
 10
963.5159434741
 20
-452.4704891156
 10
963.3870329837
 20
-454.2463974454
 10
963.0042183926
 20
-456.1171825833
 10
962.3791313283
 20
-458.0260016697
 10
961.5307647449
 20
-459.9148562025
 10
960.484895832
 20
-461.7263542925
 10
959.273302787
 20
-463.4054544869
 10
957.9327992517
 20
-464.9011381761
 10
956.5041157475
 20
-466.1679597678
 10
955.0306620999
 20
-467.1674275292
 10
953.5572084523
 20
-467.869173138
 10
952.1285249481
 20
-468.2518744091
 10
950.7880214128
 20
-468.3039031579
 10
949.5764283678
 20
-468.0236785172
 10
948.5305594549
 20
-467.4197149711
 10
947.6821928716
 20
-466.5103636461
 10
947.0571058072
 20
-465.3232547221
 10
946.6742912161
 20
-463.8944579031
 10
946.5453807257
 20
-462.2673864575
 10
946.6742912161
 20
-460.4914781277
 10
947.0571058072
 20
-458.6206929898
 10
947.6821928716
 20
-456.7118739034
 10
948.5305594549
 20
-454.8230193706
 10
949.5764283678
 20
-453.0115212806
 10
950.7880214128
 20
-451.3324210862
 10
952.1285249481
 20
-449.8367373971
 10
953.5572084523
 20
-448.5699158053
 10
955.0306620999
 20
-447.5704480439
 10
956.5041157475
 20
-446.8687024351
 10
957.9327992517
 20
-446.4860011641
 10
959.273302787
 20
-446.4339724153
 10
960.484895832
 20
-446.7141970559
 10
961.5307647449
 20
-447.3181606021
 10
962.3791313283
 20
-448.2275119271
 10
963.0042183926
 20
-449.414620851
 10
963.3870329837
 20
-450.84341767
 10
963.5159434741
 20
-452.4704891156
  0
LWPOLYLINE
  5
1D8
330
1F
100
AcDbEntity
  8
0
  6
Continuous
 62
     7
370
    25
100
AcDbPolyline
 90
       37
 70
   128
 43
0.0
 10
875.4987540302
 20
-604.9207327246
 10
875.3698435398
 20
-606.6966410544
 10
874.9870289486
 20
-608.5674261923
 10
874.3619418843
 20
-610.4762452787
 10
873.513575301
 20
-612.3650998115
 10
872.467706388
 20
-614.1765979015
 10
871.256113343
 20
-615.8556980959
 10
869.9156098077
 20
-617.351381785
 10
868.4869263035
 20
-618.6182033768
 10
867.0134726559
 20
-619.6176711382
 10
865.5400190083
 20
-620.319416747
 10
864.1113355041
 20
-620.702118018
 10
862.7708319688
 20
-620.7541467668
 10
861.5592389239
 20
-620.4739221262
 10
860.5133700109
 20
-619.86995858
 10
859.6650034276
 20
-618.960607255
 10
859.0399163633
 20
-617.7734983311
 10
858.6571017721
 20
-616.3447015121
 10
858.5281912817
 20
-614.7176300665
 10
858.6571017721
 20
-612.9417217367
 10
859.0399163633
 20
-611.0709365988
 10
859.6650034276
 20
-609.1621175124
 10
860.5133700109
 20
-607.2732629796
 10
861.5592389239
 20
-605.4617648896
 10
862.7708319688
 20
-603.7826646952
 10
864.1113355041
 20
-602.286981006
 10
865.5400190083
 20
-601.0201594143
 10
867.0134726559
 20
-600.0206916529
 10
868.4869263035
 20
-599.3189460441
 10
869.9156098077
 20
-598.936244773
 10
871.256113343
 20
-598.8842160242
 10
872.467706388
 20
-599.1644406649
 10
873.513575301
 20
-599.7684042111
 10
874.3619418843
 20
-600.6777555361
 10
874.9870289486
 20
-601.86486446
 10
875.3698435398
 20
-603.293661279
 10
875.4987540302
 20
-604.9207327246
  0
LWPOLYLINE
  5
1D9
330
1F
100
AcDbEntity
  8
0
  6
Continuous
 62
     7
370
    25
100
AcDbPolyline
 90
       37
 70
   128
 43
0.0
 10
751.0236509965
 20
-676.7786801665
 10
750.8947405061
 20
-678.5545884963
 10
750.5119259149
 20
-680.4253736342
 10
749.8868388506
 20
-682.3341927206
 10
749.0384722673
 20
-684.2230472534
 10
747.9926033543
 20
-686.0345453434
 10
746.7810103094
 20
-687.7136455378
 10
745.4405067741
 20
-689.2093292269
 10
744.0118232699
 20
-690.4761508187
 10
742.5383696223
 20
-691.4756185801
 10
741.0649159746
 20
-692.1773641889
 10
739.6362324705
 20
-692.5600654599
 10
738.2957289352
 20
-692.6120942087
 10
737.0841358902
 20
-692.3318695681
 10
736.0382669772
 20
-691.7279060219
 10
735.1899003939
 20
-690.8185546969
 10
734.5648133296
 20
-689.631445773
 10
734.1819987384
 20
-688.202648954
 10
734.053088248
 20
-686.5755775084
 10
734.1819987384
 20
-684.7996691786
 10
734.5648133296
 20
-682.9288840407
 10
735.1899003939
 20
-681.0200649543
 10
736.0382669772
 20
-679.1312104215
 10
737.0841358902
 20
-677.3197123315
 10
738.2957289352
 20
-675.6406121371
 10
739.6362324705
 20
-674.1449284479
 10
741.0649159746
 20
-672.8781068562
 10
742.5383696223
 20
-671.8786390948
 10
744.0118232699
 20
-671.176893486
 10
745.4405067741
 20
-670.7941922149
 10
746.7810103094
 20
-670.7421634661
 10
747.9926033543
 20
-671.0223881068
 10
749.0384722673
 20
-671.626351653
 10
749.8868388506
 20
-672.5357029779
 10
750.5119259149
 20
-673.7228119019
 10
750.8947405061
 20
-675.1516087209
 10
751.0236509965
 20
-676.7786801665
  0
LWPOLYLINE
  5
1DA
330
1F
100
AcDbEntity
  8
0
  6
Continuous
 62
     7
370
    25
100
AcDbPolyline
 90
       37
 70
   128
 43
0.0
 10
663.0064615525
 20
-625.9509203941
 10
662.8775510621
 20
-627.7268287239
 10
662.494736471
 20
-629.5976138619
 10
661.8696494067
 20
-631.5064329482
 10
661.0212828233
 20
-633.395287481
 10
659.9754139104
 20
-635.206785571
 10
658.7638208654
 20
-636.8858857654
 10
657.4233173301
 20
-638.3815694546
 10
655.9946338259
 20
-639.6483910463
 10
654.5211801783
 20
-640.6478588077
 10
653.0477265307
 20
-641.3496044165
 10
651.6190430265
 20
-641.7323056876
 10
650.2785394912
 20
-641.7843344364
 10
649.0669464462
 20
-641.5041097957
 10
648.0210775333
 20
-640.9001462496
 10
647.17271095
 20
-639.9907949246
 10
646.5476238856
 20
-638.8036860006
 10
646.1648092945
 20
-637.3748891816
 10
646.0358988041
 20
-635.747817736
 10
646.1648092945
 20
-633.9719094063
 10
646.5476238856
 20
-632.1011242683
 10
647.17271095
 20
-630.1923051819
 10
648.0210775333
 20
-628.3034506492
 10
649.0669464462
 20
-626.4919525591
 10
650.2785394912
 20
-624.8128523647
 10
651.6190430265
 20
-623.3171686756
 10
653.0477265307
 20
-622.0503470838
 10
654.5211801783
 20
-621.0508793225
 10
655.9946338259
 20
-620.3491337136
 10
657.4233173301
 20
-619.9664324426
 10
658.7638208654
 20
-619.9144036938
 10
659.9754139104
 20
-620.1946283344
 10
661.0212828233
 20
-620.7985918806
 10
661.8696494067
 20
-621.7079432056
 10
662.494736471
 20
-622.8950521296
 10
662.8775510621
 20
-624.3238489485
 10
663.0064615525
 20
-625.9509203941
  0
LWPOLYLINE
  5
1DB
330
1F
100
AcDbEntity
  8
0
  6
Continuous
 62
     7
370
    25
100
AcDbPolyline
 90
       37
 70
   128
 43
0.0
 10
663.0064615526
 20
-482.2116657372
 10
662.8775510622
 20
-483.9875740669
 10
662.494736471
 20
-485.8583592049
 10
661.8696494067
 20
-487.7671782912
 10
661.0212828233
 20
-489.656032824
 10
659.9754139104
 20
-491.467530914
 10
658.7638208654
 20
-493.1466311085
 10
657.4233173301
 20
-494.6423147976
 10
655.9946338259
 20
-495.9091363893
 10
654.5211801783
 20
-496.9086041507
 10
653.0477265307
 20
-497.6103497595
 10
651.6190430265
 20
-497.9930510306
 10
650.2785394912
 20
-498.0450797794
 10
649.0669464462
 20
-497.7648551388
 10
648.0210775333
 20
-497.1608915926
 10
647.17271095
 20
-496.2515402676
 10
646.5476238856
 20
-495.0644313436
 10
646.1648092945
 20
-493.6356345247
 10
646.0358988041
 20
-492.008563079
 10
646.1648092945
 20
-490.2326547493
 10
646.5476238856
 20
-488.3618696113
 10
647.17271095
 20
-486.4530505249
 10
648.0210775333
 20
-484.5641959922
 10
649.0669464462
 20
-482.7526979022
 10
650.2785394912
 20
-481.0735977077
 10
651.6190430265
 20
-479.5779140186
 10
653.0477265307
 20
-478.3110924268
 10
654.5211801783
 20
-477.3116246655
 10
655.9946338259
 20
-476.6098790566
 10
657.4233173301
 20
-476.2271777856
 10
658.7638208654
 20
-476.1751490368
 10
659.9754139104
 20
-476.4553736774
 10
661.0212828233
 20
-477.0593372236
 10
661.8696494067
 20
-477.9686885486
 10
662.494736471
 20
-479.1557974726
 10
662.8775510622
 20
-480.5845942915
 10
663.0064615526
 20
-482.2116657372
  0
LWPOLYLINE
  5
1DC
330
1F
100
AcDbEntity
  8
0
  6
Continuous
 62
     7
370
    25
100
AcDbPolyline
 90
       37
 70
   128
 43
0.0
 10
751.0236509965
 20
-329.7614221282
 10
750.8947405061
 20
-331.537330458
 10
750.511925915
 20
-333.4081155959
 10
749.8868388507
 20
-335.3169346823
 10
749.0384722673
 20
-337.2057892151
 10
747.9926033544
 20
-339.0172873051
 10
746.7810103094
 20
-340.6963874995
 10
745.4405067741
 20
-342.1920711886
 10
744.0118232699
 20
-343.4588927804
 10
742.5383696223
 20
-344.4583605418
 10
741.0649159747
 20
-345.1601061506
 10
739.6362324705
 20
-345.5428074216
 10
738.2957289352
 20
-345.5948361704
 10
737.0841358902
 20
-345.3146115298
 10
736.0382669773
 20
-344.7106479836
 10
735.189900394
 20
-343.8012966586
 10
734.5648133296
 20
-342.6141877347
 10
734.1819987385
 20
-341.1853909157
 10
734.0530882481
 20
-339.5583194701
 10
734.1819987385
 20
-337.7824111403
 10
734.5648133296
 20
-335.9116260024
 10
735.189900394
 20
-334.002806916
 10
736.0382669773
 20
-332.1139523832
 10
737.0841358902
 20
-330.3024542932
 10
738.2957289352
 20
-328.6233540988
 10
739.6362324705
 20
-327.1276704096
 10
741.0649159747
 20
-325.8608488179
 10
742.5383696223
 20
-324.8613810565
 10
744.0118232699
 20
-324.1596354477
 10
745.4405067741
 20
-323.7769341766
 10
746.7810103094
 20
-323.7249054278
 10
747.9926033544
 20
-324.0051300685
 10
749.0384722673
 20
-324.6090936147
 10
749.8868388507
 20
-325.5184449396
 10
750.511925915
 20
-326.7055538636
 10
750.8947405061
 20
-328.1343506826
 10
751.0236509965
 20
-329.7614221282
  0
ARC
  5
1DD
330
1F
100
AcDbEntity
  8
0
  6
Continuous
 62
     7
370
    25
100
AcDbCircle
 10
866.7574861537
 20
-366.5294478867
 30
0.0
 40
65.39948262870563
100
AcDbArc
 50
33.9752383988
 51
85.1422902953
  0
ARC
  5
1DE
330
1F
100
AcDbEntity
  8
0
  6
Continuous
 62
     7
370
    25
100
AcDbCircle
 10
743.8818845462
 20
-579.3559217658
 30
0.0
 40
64.75813157785379
100
AcDbArc
 50
216.8224093567
 51
263.1961101553
  0
ARC
  5
1DF
330
1F
100
AcDbEntity
  8
0
  6
Continuous
 62
     7
370
    25
100
AcDbCircle
 10
774.6704012377
 20
-591.2668188427
 30
0.0
 40
70.05586037840777
100
AcDbArc
 50
216.5383505045
 51
225.8691153977
  0
ARC
  5
1E0
330
1F
100
AcDbEntity
  8
0
  6
Continuous
 62
     7
370
    25
100
AcDbCircle
 10
892.8306929904
 20
-386.4477226131
 30
0.0
 40
69.8561017222082
100
AcDbArc
 50
74.1194628174
 51
83.8183744988
  0
LINE
  5
1E1
330
1F
100
AcDbEntity
  8
0
  6
Continuous
 62
     7
370
    25
100
AcDbLine
 10
926.1236784087
 20
-529.616605398
 30
0.0
 11
925.9825809498
 21
-529.5308611732
 31
0.0
  0
LINE
  5
1E2
330
1F
100
AcDbEntity
  8
0
  6
Continuous
 62
     7
370
    25
100
AcDbLine
 10
961.3784193695
 20
-448.336348581
 30
0.0
 11
961.2373219106
 21
-448.2506043563
 31
0.0
  0
LINE
  5
1E3
330
1F
100
AcDbEntity
  8
0
  6
Continuous
 62
     7
370
    25
100
AcDbLine
 10
873.3612299255
 20
-600.78659219
 30
0.0
 11
873.2201324666
 21
-600.7008479653
 31
0.0
  0
LINE
  5
1E4
330
1F
100
AcDbEntity
  8
0
  6
Continuous
 62
     7
370
    25
100
AcDbLine
 10
973.7582380816
 20
-369.3200040322
 30
0.0
 11
973.6171406227
 21
-369.2342598074
 31
0.0
  0
LINE
  5
1E5
330
1F
100
AcDbEntity
  8
0
  6
Continuous
 62
     7
370
    25
100
AcDbLine
 10
811.1236784087
 20
-651.0113236255
 30
0.0
 11
810.9825809498
 21
-650.9255794008
 31
0.0
  0
LINE
  5
1E6
330
1F
100
AcDbEntity
  8
0
  6
Continuous
 62
     7
370
    25
100
AcDbLine
 10
961.3784193695
 20
-304.597093924
 30
0.0
 11
961.2373219106
 21
-304.5113496993
 31
0.0
  0
LINE
  5
1E7
330
1F
100
AcDbEntity
  8
0
  6
Continuous
 62
     7
370
    25
100
AcDbLine
 10
748.8861268919
 20
-672.6445396319
 30
0.0
 11
748.745029433
 21
-672.5587954072
 31
0.0
  0
LINE
  5
1E8
330
1F
100
AcDbEntity
  8
0
  6
Continuous
 62
     7
370
    25
100
AcDbLine
 10
926.1236784087
 20
-264.0210946059
 30
0.0
 11
925.9825809498
 21
-263.9353503812
 31
0.0
  0
LINE
  5
1E9
330
1F
100
AcDbEntity
  8
0
  6
Continuous
 62
     7
370
    25
100
AcDbLine
 10
696.1236784087
 20
-662.3927791776
 30
0.0
 11
695.9825809498
 21
-662.3070349529
 31
0.0
  0
LINE
  5
1EA
330
1F
100
AcDbEntity
  8
0
  6
Continuous
 62
     7
370
    25
100
AcDbLine
 10
873.3612299255
 20
-253.7693341517
 30
0.0
 11
873.2201324666
 21
-253.683589927
 31
0.0
  0
LINE
  5
1EB
330
1F
100
AcDbEntity
  8
0
  6
Continuous
 62
     7
370
    25
100
AcDbLine
 10
660.8689374479
 20
-621.8167798595
 30
0.0
 11
660.727839989
 21
-621.7310356348
 31
0.0
  0
LINE
  5
1EC
330
1F
100
AcDbEntity
  8
0
  6
Continuous
 62
     7
370
    25
100
AcDbLine
 10
811.1236784087
 20
-275.402550158
 30
0.0
 11
810.9825809498
 21
-275.3168059333
 31
0.0
  0
LINE
  5
1ED
330
1F
100
AcDbEntity
  8
0
  6
Continuous
 62
     7
370
    25
100
AcDbLine
 10
648.4891187358
 20
-557.0938697514
 30
0.0
 11
648.3480212769
 21
-557.0081255267
 31
0.0
  0
LINE
  5
1EE
330
1F
100
AcDbEntity
  8
0
  6
Continuous
 62
     7
370
    25
100
AcDbLine
 10
748.8861268919
 20
-325.6272815936
 30
0.0
 11
748.745029433
 21
-325.5415373689
 31
0.0
  0
LINE
  5
1EF
330
1F
100
AcDbEntity
  8
0
  6
Continuous
 62
     7
370
    25
100
AcDbLine
 10
660.8689374479
 20
-478.0775252025
 30
0.0
 11
660.727839989
 21
-477.9917809778
 31
0.0
  0
LINE
  5
1F0
330
1F
100
AcDbEntity
  8
0
  6
Continuous
 62
     7
370
    25
100
AcDbLine
 10
696.1236784087
 20
-396.7972683856
 30
0.0
 11
695.9825809498
 21
-396.7115241609
 31
0.0
  0
LWPOLYLINE
  5
1F1
330
1F
100
AcDbEntity
  8
0
  6
Continuous
 62
     1
370
    25
100
AcDbPolyline
 90
       58
 70
   128
 43
0.0
 10
987.2094706853
 20
-367.739287784
 10
987.0853624544
 20
-375.5652426197
 10
986.7132072788
 20
-383.5238004557
 10
986.0935134777
 20
-391.6040908593
 10
985.2271274783
 20
-399.7950771258
 10
984.1152326595
 20
-408.0855713532
 10
982.759347736
 20
-416.4642497235
 10
981.1613246836
 20
-424.91966797
 10
979.3233462093
 20
-433.4402770085
 10
977.2479227709
 20
-442.0144387118
 10
974.9378891471
 20
-450.6304418065
 10
972.3964005658
 20
-459.2765178687
 10
969.6269283949
 20
-467.9408573985
 10
966.6332554001
 20
-476.6116259503
 10
963.4194705787
 20
-485.2769802972
 10
959.9899635743
 20
-493.9250846076
 10
956.3494186807
 20
-502.5441266112
 10
952.5028084445
 20
-511.1223337333
 10
948.4553868725
 20
-519.6479891749
 10
944.2126822557
 20
-528.1094479161
 10
939.7804896184
 20
-536.4951526222
 10
935.1648628025
 20
-544.7936494291
 10
930.3721061991
 20
-552.9936035884
 10
925.4087661371
 20
-561.0838149491
 10
920.2816219422
 20
-569.0532332556
 10
914.9976766765
 20
-576.8909732411
 10
909.5641475736
 20
-584.5863294956
 10
903.9884561808
 20
-592.128791088
 10
898.2782182219
 20
-599.508055923
 10
892.441233195
 20
-606.7140448126
 10
886.4854737195
 20
-613.7369152427
 10
880.4190746465
 20
-620.567074817
 10
874.2503219474
 20
-627.1951943591
 10
867.9876413965
 20
-633.612220655
 10
861.639587062
 20
-639.8093888187
 10
855.2148296225
 20
-645.7782342638
 10
848.722144524
 20
-651.5106042656
 10
842.1703999932
 20
-656.998669096
 10
835.5685449252
 20
-662.2349327186
 10
828.9255966598
 20
-667.2122430272
 10
822.2506286653
 20
-671.9238016147
 10
815.5527581451
 20
-676.3631730586
 10
808.8411335847
 20
-680.5242937117
 10
802.1249222559
 20
-684.4014799836
 10
795.4132976955
 20
-687.9894361043
 10
788.7154271753
 20
-691.2832613572
 10
782.0404591808
 20
-694.2784567733
 10
775.3975109154
 20
-696.9709312759
 10
768.7956558474
 20
-699.3570072688
 10
762.2439113166
 20
-701.433425659
 10
755.7512262181
 20
-703.197350309
 10
749.3264687786
 20
-704.6463719097
 10
742.9784144441
 20
-705.7785112719
 10
736.7157338932
 20
-706.5922220296
 10
730.5469811941
 20
-707.0863927516
 10
724.4805821211
 20
-707.2603484601
 10
718.5248226457
 20
-707.1138515527
 10
713.9316535367
 20
-706.7743849466
  0
LWPOLYLINE
  5
1F2
330
1F
100
AcDbEntity
  8
0
  6
Continuous
 62
     1
370
    25
100
AcDbPolyline
 90
       16
 70
   128
 43
0.0
 10
962.5232846851
 20
-276.3887802424
 10
963.4194705787
 20
-277.6689447348
 10
966.6332554001
 20
-282.6237421084
 10
969.6269283949
 20
-287.8380893924
 10
972.3964005658
 20
-293.3048644158
 10
974.9378891471
 20
-299.0166002212
 10
977.2479227709
 20
-304.9654952648
 10
979.3233462093
 20
-311.1434240714
 10
981.1613246836
 20
-317.5419483333
 10
982.759347736
 20
-324.1523284362
 10
984.1152326595
 20
-330.9655353959
 10
985.2271274783
 20
-337.9722631913
 10
986.0935134777
 20
-345.1629414749
 10
986.7132072788
 20
-352.5277486452
 10
987.0853624544
 20
-360.0566252615
 10
987.2094706853
 20
-367.739287784
  0
LWPOLYLINE
  5
1F3
330
1F
100
AcDbEntity
  8
0
  6
Continuous
 62
     1
370
    25
100
AcDbPolyline
 90
       16
 70
   128
 43
0.0
 10
1014.0795283703
 20
-383.2510419086
 10
1013.9554201395
 20
-375.5683793862
 10
1013.5832649639
 20
-368.0395027699
 10
1012.9635711628
 20
-360.6746955995
 10
1012.0971851633
 20
-353.4840173159
 10
1010.9852903446
 20
-346.4772895205
 10
1009.6294054211
 20
-339.6640825608
 10
1008.0313823686
 20
-333.053702458
 10
1006.1934038944
 20
-326.655178196
 10
1004.117980456
 20
-320.4772493894
 10
1001.8079468321
 20
-314.5283543459
 10
999.2664582509
 20
-308.8166185404
 10
996.49698608
 20
-303.3498435171
 10
993.5033130852
 20
-298.135496233
 10
990.2895282638
 20
-293.1806988594
 10
989.9161976921
 20
-292.6424114625
  0
LWPOLYLINE
  5
1F4
330
1F
100
AcDbEntity
  8
0
  6
Continuous
 62
     1
370
    25
100
AcDbPolyline
 90
       58
 70
   128
 43
0.0
 10
741.6591724935
 20
-722.3649912246
 10
745.3948803308
 20
-722.6256056774
 10
751.3506398062
 20
-722.7721025848
 10
757.4170388792
 20
-722.5981468762
 10
763.5857915783
 20
-722.1039761542
 10
769.8484721292
 20
-721.2902653966
 10
776.1965264637
 20
-720.1581260343
 10
782.6212839032
 20
-718.7091044336
 10
789.1139690017
 20
-716.9451797837
 10
795.6657135325
 20
-714.8687613934
 10
802.2675686005
 20
-712.4826854006
 10
808.9105168659
 20
-709.7902108979
 10
815.5854848604
 20
-706.7950154818
 10
822.2833553806
 20
-703.5011902289
 10
828.994979941
 20
-699.9132341082
 10
835.7111912698
 20
-696.0360478363
 10
842.4228158302
 20
-691.8749271833
 10
849.1206863504
 20
-687.4355557393
 10
855.7956543449
 20
-682.7239971519
 10
862.4386026103
 20
-677.7466868432
 10
869.0404576783
 20
-672.5104232206
 10
875.5922022091
 20
-667.0223583902
 10
882.0848873076
 20
-661.2899883885
 10
888.5096447471
 20
-655.3211429433
 10
894.8576990816
 20
-649.1239747796
 10
901.1203796325
 20
-642.7069484837
 10
907.2891323316
 20
-636.0788289416
 10
913.3555314046
 20
-629.2486693673
 10
919.31129088
 20
-622.2257989372
 10
925.148275907
 20
-615.0198100476
 10
930.8585138659
 20
-607.6405452126
 10
936.4342052587
 20
-600.0980836202
 10
941.8677343615
 20
-592.4027273657
 10
947.1516796273
 20
-584.5649873802
 10
952.2788238222
 20
-576.5955690738
 10
957.2421638842
 20
-568.505357713
 10
962.0349204876
 20
-560.3054035537
 10
966.6505473035
 20
-552.0069067468
 10
971.0827399408
 20
-543.6212020408
 10
975.3254445576
 20
-535.1597432995
 10
979.3728661295
 20
-526.6340878579
 10
983.2194763658
 20
-518.0558807358
 10
986.8600212593
 20
-509.4368387322
 10
990.2895282638
 20
-500.7887344219
 10
993.5033130852
 20
-492.1233800749
 10
996.49698608
 20
-483.4526115231
 10
999.2664582509
 20
-474.7882719933
 10
1001.8079468321
 20
-466.1421959311
 10
1004.117980456
 20
-457.5261928364
 10
1006.1934038944
 20
-448.9520311331
 10
1008.0313823686
 20
-440.4314220946
 10
1009.6294054211
 20
-431.9760038481
 10
1010.9852903446
 20
-423.5973254778
 10
1012.0971851633
 20
-415.3068312504
 10
1012.9635711628
 20
-407.115844984
 10
1013.5832649639
 20
-399.0355545803
 10
1013.9554201395
 20
-391.0769967443
 10
1014.0795283703
 20
-383.2510419086
  0
LWPOLYLINE
  5
1F5
330
1F
100
AcDbEntity
  8
0
  6
Continuous
 62
     1
370
    25
100
AcDbPolyline
 90
       63
 70
   128
 43
0.0
 10
872.2956119577
 20
-301.3648755281
 10
867.7514074597
 20
-301.0733150821
 10
862.6051417358
 20
-301.0566596743
 10
857.3516352118
 20
-301.3621485722
 10
852.0007507972
 20
-301.9892082522
 10
846.5625342185
 20
-302.9366614753
 10
841.047195159
 20
-304.2027294971
 10
835.4650880916
 20
-305.7850354072
 10
829.8266928389
 20
-307.6806085915
 10
824.142594899
 20
-309.8858903094
 10
818.4234655718
 20
-312.396740375
 10
812.680041925
 20
-315.2084449297
 10
806.9231066364
 20
-318.3157252918
 10
801.1634677506
 20
-321.7127478672
 10
795.4119383875
 20
-325.393135101
 10
789.6793164428
 20
-329.3499774506
 10
783.9763643151
 20
-333.5758463581
 10
778.3137887011
 20
-338.062808196
 10
772.7022204949
 20
-342.8024391624
 10
767.1521948294
 20
-347.7858410954
 10
761.6741312979
 20
-353.0036581785
 10
756.2783143924
 20
-358.4460945054
 10
750.9748741952
 20
-364.1029324705
 10
745.7737673611
 20
-369.9635519517
 10
740.6847584249
 20
-376.0169502482
 10
735.717401469
 20
-382.2517627371
 10
730.8810221871
 20
-388.6562842097
 10
726.184700376
 20
-395.2184908458
 10
721.6372528891
 20
-401.9260627884
 10
717.2472170839
 20
-408.7664072719
 10
713.022834794
 20
-415.7266822642
 10
708.9720368558
 20
-422.7938205764
 10
705.102428219
 20
-429.9545543947
 10
701.4212736696
 20
-437.1954401896
 10
697.9354841906
 20
-444.5028839545
 10
694.6516039875
 20
-451.8631667274
 10
691.5757982023
 20
-459.2624703464
 10
688.713841339
 20
-466.6869033921
 10
686.0711064225
 20
-474.1225272671
 10
683.6525549115
 20
-481.5553823647
 10
681.4627273838
 20
-488.971514276
 10
679.5057350117
 20
-496.3569999883
 10
677.785251844
 20
-503.6979740237
 10
676.3045079079
 20
-510.9806544707
 10
675.0662831456
 20
-518.1913688576
 10
674.0729021945
 20
-525.3165798216
 10
673.3262300238
 20
-532.3429105236
 10
672.8276684323
 20
-539.2571697619
 10
672.5781534174
 20
-546.0463767372
 10
672.5781534174
 20
-552.6977854228
 10
672.8276684323
 20
-559.1989084939
 10
673.3262300238
 20
-565.5375407713
 10
674.0729021945
 20
-571.701782135
 10
675.0662831456
 20
-577.6800598661
 10
676.3045079079
 20
-583.4611503728
 10
677.785251844
 20
-589.0342002618
 10
679.5057350117
 20
-594.388746714
 10
681.4627273838
 20
-599.5147371282
 10
683.6525549115
 20
-604.4025479928
 10
686.0711064225
 20
-609.0430029537
 10
688.713841339
 20
-613.4273900416
 10
691.5757982023
 20
-617.5474780278
 10
692.0431931091
 20
-618.1678487412
  0
LWPOLYLINE
  5
1F6
330
1F
100
AcDbEntity
  8
0
  6
Continuous
 62
     1
370
    25
100
AcDbPolyline
 90
       63
 70
   128
 43
0.0
 10
718.3834219144
 20
-632.9753255532
 10
715.5838990241
 20
-628.9391441662
 10
712.9411641076
 20
-624.5547570783
 10
710.5226125966
 20
-619.9143021174
 10
708.3327850689
 20
-615.0264912528
 10
706.3757926968
 20
-609.9005008386
 10
704.655309529
 20
-604.5459543864
 10
703.174565593
 20
-598.9729044975
 10
701.9363408306
 20
-593.1918139908
 10
700.9429598796
 20
-587.2135362596
 10
700.1962877089
 20
-581.0492948959
 10
699.6977261174
 20
-574.7106626186
 10
699.4482111025
 20
-568.2095395474
 10
699.4482111025
 20
-561.5581308618
 10
699.6977261174
 20
-554.7689238865
 10
700.1962877089
 20
-547.8546646482
 10
700.9429598796
 20
-540.8283339462
 10
701.9363408306
 20
-533.7031229822
 10
703.174565593
 20
-526.4924085953
 10
704.655309529
 20
-519.2097281484
 10
706.3757926968
 20
-511.8687541129
 10
708.3327850689
 20
-504.4832684006
 10
710.5226125966
 20
-497.0671364893
 10
712.9411641076
 20
-489.6342813918
 10
715.5838990241
 20
-482.1986575167
 10
718.4458558874
 20
-474.774224471
 10
721.5216616726
 20
-467.3749208521
 10
724.8055418757
 20
-460.0146380792
 10
728.2913313547
 20
-452.7071943142
 10
731.9724859041
 20
-445.4663085194
 10
735.8420945409
 20
-438.3055747011
 10
739.8928924791
 20
-431.2384363889
 10
744.117274769
 20
-424.2781613965
 10
748.5073105742
 20
-417.437816913
 10
753.0547580611
 20
-410.7302449705
 10
757.7510798722
 20
-404.1680383343
 10
762.5874591541
 20
-397.7635168618
 10
767.55481611
 20
-391.5287043728
 10
772.6438250462
 20
-385.4753060763
 10
777.8449318802
 20
-379.6146865952
 10
783.1483720775
 20
-373.95784863
 10
788.544188983
 20
-368.5154123032
 10
794.0222525145
 20
-363.29759522
 10
799.5722781799
 20
-358.314193287
 10
805.1838463862
 20
-353.5745623206
 10
810.8464220002
 20
-349.0876004827
 10
816.5493741279
 20
-344.8617315752
 10
822.2819960726
 20
-340.9048892256
 10
828.0335254356
 20
-337.2245019918
 10
833.7931643215
 20
-333.8274794164
 10
839.5500996101
 20
-330.7201990543
 10
845.2935232569
 20
-327.9084944997
 10
851.0126525841
 20
-325.3976444341
 10
856.696750524
 20
-323.1923627161
 10
862.3351457767
 20
-321.2967895318
 10
867.9172528441
 20
-319.7144836218
 10
873.4325919036
 20
-318.4484156
 10
878.8708084823
 20
-317.5009623768
 10
884.2216928969
 20
-316.8739026968
 10
889.4751994209
 20
-316.568413799
 10
894.6214651448
 20
-316.5850692067
 10
899.6508284924
 20
-316.9238376513
 10
900.3528350765
 20
-316.9977958582
  0
LWPOLYLINE
  5
1F7
330
1F
100
AcDbEntity
  8
0
  6
Continuous
 62
     1
370
    25
100
AcDbPolyline
 90
       19
 70
   128
 43
0.0
 10
925.9825809498
 20
-529.5308611732
 10
925.3326404561
 20
-529.2354064861
 10
924.1688611112
 20
-529.0201483538
 10
922.8866160548
 20
-529.1274957049
 10
921.527117698
 20
-529.5539983073
 10
920.1340614367
 20
-530.2859480165
 10
918.7522212454
 20
-531.2998193665
 10
917.4260106047
 20
-532.5630256979
 10
916.1980550158
 20
-534.0349665199
 10
915.1078219817
 20
-535.6683324434
 10
914.1903524893
 20
-537.4106257435
 10
913.4751347629
 20
-539.2058476802
 10
912.9851564886
 20
-540.9962983432
 10
912.7361659714
 20
-542.724431175
 10
912.7361659714
 20
-544.3347025645
 10
912.9851564886
 20
-545.7753570643
 10
913.4751347629
 20
-547.0000908535
 10
914.1903524893
 20
-547.9695399802
 10
915.0393940917
 20
-548.6155678186
  0
LWPOLYLINE
  5
1F8
330
1F
100
AcDbEntity
  8
0
  6
Continuous
 62
     1
370
    25
100
AcDbPolyline
 90
       19
 70
   128
 43
0.0
 10
961.2373219106
 20
-448.2506043563
 10
960.5873814169
 20
-447.9551496692
 10
959.423602072
 20
-447.7398915368
 10
958.1413570156
 20
-447.8472388879
 10
956.7818586588
 20
-448.2737414904
 10
955.3888023975
 20
-449.0056911995
 10
954.0069622062
 20
-450.0195625495
 10
952.6807515654
 20
-451.282768881
 10
951.4527959766
 20
-452.754709703
 10
950.3625629425
 20
-454.3880756264
 10
949.4450934501
 20
-456.1303689266
 10
948.7298757236
 20
-457.9255908633
 10
948.2398974494
 20
-459.7160415262
 10
947.9909069322
 20
-461.444174358
 10
947.9909069322
 20
-463.0544457476
 10
948.2398974494
 20
-464.4951002474
 10
948.7298757236
 20
-465.7198340365
 10
949.4450934501
 20
-466.6892831633
 10
950.2941350525
 20
-467.3353110017
  0
LWPOLYLINE
  5
1F9
330
1F
100
AcDbEntity
  8
0
  6
Continuous
 62
     1
370
    25
100
AcDbPolyline
 90
       19
 70
   128
 43
0.0
 10
873.2201324666
 20
-600.7008479653
 10
872.5701919729
 20
-600.4053932782
 10
871.406412628
 20
-600.1901351458
 10
870.1241675716
 20
-600.2974824969
 10
868.7646692148
 20
-600.7239850993
 10
867.3716129535
 20
-601.4559348085
 10
865.9897727622
 20
-602.4698061585
 10
864.6635621215
 20
-603.7330124899
 10
863.4356065326
 20
-605.204953312
 10
862.3453734985
 20
-606.8383192354
 10
861.4279040061
 20
-608.5806125356
 10
860.7126862797
 20
-610.3758344722
 10
860.2227080054
 20
-612.1662851352
 10
859.9737174882
 20
-613.894417967
 10
859.9737174882
 20
-615.5046893565
 10
860.2227080054
 20
-616.9453438563
 10
860.7126862797
 20
-618.1700776455
 10
861.4279040061
 20
-619.1395267722
 10
862.2769456085
 20
-619.7855546106
  0
LWPOLYLINE
  5
1FA
330
1F
100
AcDbEntity
  8
0
  6
Continuous
 62
     1
370
    25
100
AcDbPolyline
 90
       19
 70
   128
 43
0.0
 10
973.6171406227
 20
-369.2342598074
 10
972.9672001291
 20
-368.9388051203
 10
971.8034207841
 20
-368.723546988
 10
970.5211757277
 20
-368.8308943391
 10
969.1616773709
 20
-369.2573969415
 10
967.7686211097
 20
-369.9893466507
 10
966.3867809183
 20
-371.0032180007
 10
965.0605702776
 20
-372.2664243321
 10
963.8326146887
 20
-373.7383651541
 10
962.7423816547
 20
-375.3717310776
 10
961.8249121622
 20
-377.1140243778
 10
961.1096944358
 20
-378.9092463144
 10
960.6197161615
 20
-380.6996969774
 10
960.3707256443
 20
-382.4278298092
 10
960.3707256443
 20
-384.0381011987
 10
960.6197161615
 20
-385.4787556985
 10
961.1096944358
 20
-386.7034894877
 10
961.8249121622
 20
-387.6729386144
 10
962.6739537647
 20
-388.3189664528
  0
LWPOLYLINE
  5
1FB
330
1F
100
AcDbEntity
  8
0
  6
Continuous
 62
     1
370
    25
100
AcDbPolyline
 90
       19
 70
   128
 43
0.0
 10
810.9825809498
 20
-650.9255794008
 10
810.3326404561
 20
-650.6301247137
 10
809.1688611112
 20
-650.4148665813
 10
807.8866160548
 20
-650.5222139324
 10
806.527117698
 20
-650.9487165349
 10
805.1340614367
 20
-651.680666244
 10
803.7522212454
 20
-652.6945375941
 10
802.4260106046
 20
-653.9577439255
 10
801.1980550158
 20
-655.4296847475
 10
800.1078219817
 20
-657.063050671
 10
799.1903524893
 20
-658.8053439711
 10
798.4751347628
 20
-660.6005659078
 10
797.9851564886
 20
-662.3910165707
 10
797.7361659714
 20
-664.1191494026
 10
797.7361659714
 20
-665.7294207921
 10
797.9851564886
 20
-667.1700752919
 10
798.4751347628
 20
-668.394809081
 10
799.1903524893
 20
-669.3642582078
 10
800.0393940917
 20
-670.0102860462
  0
LWPOLYLINE
  5
1FC
330
1F
100
AcDbEntity
  8
0
  6
Continuous
 62
     1
370
    25
100
AcDbPolyline
 90
       19
 70
   128
 43
0.0
 10
961.2373219106
 20
-304.5113496993
 10
960.5873814169
 20
-304.2158950122
 10
959.423602072
 20
-304.0006368798
 10
958.1413570156
 20
-304.1079842309
 10
956.7818586588
 20
-304.5344868334
 10
955.3888023975
 20
-305.2664365425
 10
954.0069622062
 20
-306.2803078926
 10
952.6807515655
 20
-307.543514224
 10
951.4527959766
 20
-309.015455046
 10
950.3625629425
 20
-310.6488209695
 10
949.4450934501
 20
-312.3911142696
 10
948.7298757237
 20
-314.1863362063
 10
948.2398974494
 20
-315.9767868692
 10
947.9909069322
 20
-317.7049197011
 10
947.9909069322
 20
-319.3151910906
 10
948.2398974494
 20
-320.7558455904
 10
948.7298757237
 20
-321.9805793795
 10
949.4450934501
 20
-322.9500285063
 10
950.2941350525
 20
-323.5960563447
  0
LWPOLYLINE
  5
1FD
330
1F
100
AcDbEntity
  8
0
  6
Continuous
 62
     1
370
    25
100
AcDbPolyline
 90
       19
 70
   128
 43
0.0
 10
748.745029433
 20
-672.5587954072
 10
748.0950889393
 20
-672.26334072
 10
746.9313095944
 20
-672.0480825877
 10
745.6490645379
 20
-672.1554299388
 10
744.2895661812
 20
-672.5819325412
 10
742.8965099199
 20
-673.3138822504
 10
741.5146697285
 20
-674.3277536004
 10
740.1884590878
 20
-675.5909599318
 10
738.9605034989
 20
-677.0629007538
 10
737.8702704649
 20
-678.6962666773
 10
736.9528009725
 20
-680.4385599775
 10
736.237583246
 20
-682.2337819141
 10
735.7476049718
 20
-684.0242325771
 10
735.4986144546
 20
-685.7523654089
 10
735.4986144546
 20
-687.3626367984
 10
735.7476049718
 20
-688.8032912982
 10
736.237583246
 20
-690.0280250874
 10
736.9528009725
 20
-690.9974742141
 10
737.8018425749
 20
-691.6435020525
  0
LWPOLYLINE
  5
1FE
330
1F
100
AcDbEntity
  8
0
  6
Continuous
 62
     1
370
    25
100
AcDbPolyline
 90
       19
 70
   128
 43
0.0
 10
925.9825809498
 20
-263.9353503812
 10
925.3326404562
 20
-263.6398956941
 10
924.1688611112
 20
-263.4246375617
 10
922.8866160548
 20
-263.5319849128
 10
921.527117698
 20
-263.9584875153
 10
920.1340614368
 20
-264.6904372244
 10
918.7522212454
 20
-265.7043085744
 10
917.4260106047
 20
-266.9675149059
 10
916.1980550158
 20
-268.4394557279
 10
915.1078219818
 20
-270.0728216513
 10
914.1903524893
 20
-271.8151149515
 10
913.4751347629
 20
-273.6103368882
 10
912.9851564886
 20
-275.4007875511
 10
912.7361659714
 20
-277.1289203829
 10
912.7361659714
 20
-278.7391917725
 10
912.9851564886
 20
-280.1798462723
 10
913.4751347629
 20
-281.4045800614
 10
914.1903524893
 20
-282.3740291882
 10
915.0393940918
 20
-283.0200570266
  0
LWPOLYLINE
  5
1FF
330
1F
100
AcDbEntity
  8
0
  6
Continuous
 62
     1
370
    25
100
AcDbPolyline
 90
       19
 70
   128
 43
0.0
 10
695.9825809498
 20
-662.3070349529
 10
695.3326404561
 20
-662.0115802658
 10
694.1688611112
 20
-661.7963221334
 10
692.8866160547
 20
-661.9036694845
 10
691.527117698
 20
-662.330172087
 10
690.1340614367
 20
-663.0621217961
 10
688.7522212453
 20
-664.0759931462
 10
687.4260106046
 20
-665.3391994776
 10
686.1980550158
 20
-666.8111402996
 10
685.1078219817
 20
-668.4445062231
 10
684.1903524893
 20
-670.1867995232
 10
683.4751347628
 20
-671.9820214599
 10
682.9851564886
 20
-673.7724721228
 10
682.7361659714
 20
-675.5006049547
 10
682.7361659714
 20
-677.1108763442
 10
682.9851564886
 20
-678.551530844
 10
683.4751347628
 20
-679.7762646331
 10
684.1903524893
 20
-680.7457137599
 10
685.0393940917
 20
-681.3917415983
  0
LWPOLYLINE
  5
200
330
1F
100
AcDbEntity
  8
0
  6
Continuous
 62
     1
370
    25
100
AcDbPolyline
 90
       19
 70
   128
 43
0.0
 10
873.2201324666
 20
-253.683589927
 10
872.570191973
 20
-253.3881352399
 10
871.406412628
 20
-253.1728771075
 10
870.1241675716
 20
-253.2802244586
 10
868.7646692149
 20
-253.706727061
 10
867.3716129536
 20
-254.4386767702
 10
865.9897727622
 20
-255.4525481202
 10
864.6635621215
 20
-256.7157544516
 10
863.4356065326
 20
-258.1876952737
 10
862.3453734986
 20
-259.8210611971
 10
861.4279040061
 20
-261.5633544973
 10
860.7126862797
 20
-263.3585764339
 10
860.2227080054
 20
-265.1490270969
 10
859.9737174882
 20
-266.8771599287
 10
859.9737174882
 20
-268.4874313182
 10
860.2227080054
 20
-269.928085818
 10
860.7126862797
 20
-271.1528196072
 10
861.4279040061
 20
-272.1222687339
 10
862.2769456086
 20
-272.7682965723
  0
LWPOLYLINE
  5
201
330
1F
100
AcDbEntity
  8
0
  6
Continuous
 62
     1
370
    25
100
AcDbPolyline
 90
       19
 70
   128
 43
0.0
 10
660.727839989
 20
-621.7310356348
 10
660.0778994953
 20
-621.4355809477
 10
658.9141201504
 20
-621.2203228153
 10
657.631875094
 20
-621.3276701664
 10
656.2723767372
 20
-621.7541727689
 10
654.8793204759
 20
-622.486122478
 10
653.4974802846
 20
-623.499993828
 10
652.1712696438
 20
-624.7632001595
 10
650.943314055
 20
-626.2351409815
 10
649.8530810209
 20
-627.8685069049
 10
648.9356115285
 20
-629.6108002051
 10
648.220393802
 20
-631.4060221418
 10
647.7304155278
 20
-633.1964728047
 10
647.4814250106
 20
-634.9246056365
 10
647.4814250106
 20
-636.5348770261
 10
647.7304155278
 20
-637.9755315259
 10
648.220393802
 20
-639.200265315
 10
648.9356115285
 20
-640.1697144418
 10
649.7846531309
 20
-640.8157422802
  0
LWPOLYLINE
  5
202
330
1F
100
AcDbEntity
  8
0
  6
Continuous
 62
     1
370
    25
100
AcDbPolyline
 90
       19
 70
   128
 43
0.0
 10
810.9825809498
 20
-275.3168059333
 10
810.3326404562
 20
-275.0213512462
 10
809.1688611112
 20
-274.8060931138
 10
807.8866160548
 20
-274.9134404649
 10
806.527117698
 20
-275.3399430674
 10
805.1340614368
 20
-276.0718927765
 10
803.7522212454
 20
-277.0857641265
 10
802.4260106047
 20
-278.348970458
 10
801.1980550158
 20
-279.82091128
 10
800.1078219818
 20
-281.4542772034
 10
799.1903524893
 20
-283.1965705036
 10
798.4751347629
 20
-284.9917924403
 10
797.9851564886
 20
-286.7822431032
 10
797.7361659714
 20
-288.510375935
 10
797.7361659714
 20
-290.1206473246
 10
797.9851564886
 20
-291.5613018244
 10
798.4751347629
 20
-292.7860356135
 10
799.1903524893
 20
-293.7554847403
 10
800.0393940917
 20
-294.4015125787
  0
LWPOLYLINE
  5
203
330
1F
100
AcDbEntity
  8
0
  6
Continuous
 62
     1
370
    25
100
AcDbPolyline
 90
       19
 70
   128
 43
0.0
 10
648.3480212769
 20
-557.0081255267
 10
647.6980807832
 20
-556.7126708396
 10
646.5343014383
 20
-556.4974127072
 10
645.2520563818
 20
-556.6047600583
 10
643.8925580251
 20
-557.0312626607
 10
642.4995017638
 20
-557.7632123699
 10
641.1176615724
 20
-558.7770837199
 10
639.7914509317
 20
-560.0402900513
 10
638.5634953428
 20
-561.5122308734
 10
637.4732623088
 20
-563.1455967968
 10
636.5557928164
 20
-564.887890097
 10
635.8405750899
 20
-566.6831120336
 10
635.3505968157
 20
-568.4735626966
 10
635.1016062985
 20
-570.2016955284
 10
635.1016062985
 20
-571.8119669179
 10
635.3505968157
 20
-573.2526214178
 10
635.8405750899
 20
-574.4773552069
 10
636.5557928164
 20
-575.4468043336
 10
637.4048344188
 20
-576.092832172
  0
LWPOLYLINE
  5
204
330
1F
100
AcDbEntity
  8
0
  6
Continuous
 62
     1
370
    25
100
AcDbPolyline
 90
       19
 70
   128
 43
0.0
 10
748.745029433
 20
-325.5415373689
 10
748.0950889393
 20
-325.2460826817
 10
746.9313095944
 20
-325.0308245494
 10
745.649064538
 20
-325.1381719005
 10
744.2895661812
 20
-325.5646745029
 10
742.8965099199
 20
-326.2966242121
 10
741.5146697286
 20
-327.3104955621
 10
740.1884590878
 20
-328.5737018935
 10
738.960503499
 20
-330.0456427155
 10
737.8702704649
 20
-331.679008639
 10
736.9528009725
 20
-333.4213019392
 10
736.237583246
 20
-335.2165238758
 10
735.7476049718
 20
-337.0069745388
 10
735.4986144546
 20
-338.7351073706
 10
735.4986144546
 20
-340.3453787601
 10
735.7476049718
 20
-341.7860332599
 10
736.237583246
 20
-343.0107670491
 10
736.9528009725
 20
-343.9802161758
 10
737.8018425749
 20
-344.6262440142
  0
LWPOLYLINE
  5
205
330
1F
100
AcDbEntity
  8
0
  6
Continuous
 62
     1
370
    25
100
AcDbPolyline
 90
       19
 70
   128
 43
0.0
 10
660.727839989
 20
-477.9917809778
 10
660.0778994953
 20
-477.6963262907
 10
658.9141201504
 20
-477.4810681583
 10
657.631875094
 20
-477.5884155094
 10
656.2723767372
 20
-478.0149181119
 10
654.8793204759
 20
-478.746867821
 10
653.4974802846
 20
-479.7607391711
 10
652.1712696439
 20
-481.0239455025
 10
650.943314055
 20
-482.4958863245
 10
649.8530810209
 20
-484.129252248
 10
648.9356115285
 20
-485.8715455481
 10
648.220393802
 20
-487.6667674848
 10
647.7304155278
 20
-489.4572181478
 10
647.4814250106
 20
-491.1853509796
 10
647.4814250106
 20
-492.7956223691
 10
647.7304155278
 20
-494.2362768689
 10
648.220393802
 20
-495.461010658
 10
648.9356115285
 20
-496.4304597848
 10
649.7846531309
 20
-497.0764876232
  0
LWPOLYLINE
  5
206
330
1F
100
AcDbEntity
  8
0
  6
Continuous
 62
     1
370
    25
100
AcDbPolyline
 90
       19
 70
   128
 43
0.0
 10
695.9825809498
 20
-396.7115241609
 10
695.3326404561
 20
-396.4160694738
 10
694.1688611112
 20
-396.2008113414
 10
692.8866160548
 20
-396.3081586925
 10
691.527117698
 20
-396.7346612949
 10
690.1340614367
 20
-397.4666110041
 10
688.7522212454
 20
-398.4804823541
 10
687.4260106046
 20
-399.7436886856
 10
686.1980550158
 20
-401.2156295076
 10
685.1078219817
 20
-402.848995431
 10
684.1903524893
 20
-404.5912887312
 10
683.4751347628
 20
-406.3865106678
 10
682.9851564886
 20
-408.1769613308
 10
682.7361659714
 20
-409.9050941626
 10
682.7361659714
 20
-411.5153655521
 10
682.9851564886
 20
-412.956020052
 10
683.4751347628
 20
-414.1807538411
 10
684.1903524893
 20
-415.1502029679
 10
685.0393940917
 20
-415.7962308062
  0
ENDSEC
  0
SECTION
  2
OBJECTS
  0
DICTIONARY
  5
C
330
0
100
AcDbDictionary
281
     1
  3
ACAD_GROUP
350
D
  3
ACAD_LAYOUT
350
1A
  3
ACAD_MLINESTYLE
350
17
  3
ACAD_PLOTSETTINGS
350
19
  3
ACAD_PLOTSTYLENAME
350
E
  3
ACAD_SCALELIST
350
47
  3
DWGPROPS
350
207
  0
DICTIONARY
  5
D
102
{ACAD_REACTORS
330
C
102
}
330
C
100
AcDbDictionary
281
     1
  0
DICTIONARY
  5
1A
102
{ACAD_REACTORS
330
C
102
}
330
C
100
AcDbDictionary
281
     1
  3
Layout1
350
1E
  3
Layout2
350
26
  3
Model
350
22
  0
DICTIONARY
  5
17
102
{ACAD_REACTORS
330
C
102
}
330
C
100
AcDbDictionary
281
     1
  3
Standard
350
18
  0
DICTIONARY
  5
19
102
{ACAD_REACTORS
330
C
102
}
330
C
100
AcDbDictionary
281
     1
  0
ACDBDICTIONARYWDFLT
  5
E
102
{ACAD_REACTORS
330
C
102
}
330
C
100
AcDbDictionary
281
     1
  3
Normal
350
F
100
AcDbDictionaryWithDefault
340
F
  0
DICTIONARY
  5
47
102
{ACAD_REACTORS
330
C
102
}
330
C
100
AcDbDictionary
281
     1
  3
A0
350
48
  3
A1
350
49
  3
A2
350
4A
  3
A3
350
4B
  3
A4
350
4C
  3
A5
350
4D
  3
A6
350
4E
  3
A7
350
4F
  3
A8
350
50
  3
A9
350
51
  3
B0
350
52
  3
B1
350
53
  3
B2
350
54
  3
B3
350
55
  3
B4
350
56
  3
B5
350
57
  3
B6
350
58
  3
B7
350
59
  3
B8
350
5A
  3
B9
350
5B
  3
C0
350
5C
  3
C1
350
5D
  3
C2
350
5E
  3
C3
350
5F
  3
C4
350
60
  3
C5
350
61
  3
C6
350
62
  3
C7
350
63
  3
C8
350
64
  3
C9
350
65
  3
D0
350
66
  3
D1
350
67
  3
D2
350
68
  0
XRECORD
  5
207
102
{ACAD_REACTORS
330
C
102
}
330
C
100
AcDbXrecord
280
     1
  1
DWGPROPS COOKIE
  2

  3

  4

  6

  7

  8
b.kav
  9

300
=
301
=
302
=
303
=
304
=
305
=
306
=
307
=
308
=
309
=
 40
0.0
 41
2459741.466053588
 42
2459741.466056701
  1

 90
        0
  0
LAYOUT
  5
1E
102
{ACAD_REACTORS
330
1A
102
}
330
1A
100
AcDbPlotSettings
  1

  2
none_device
  4

  6

 40
0.0
 41
0.0
 42
0.0
 43
0.0
 44
0.0
 45
0.0
 46
0.0
 47
0.0
 48
0.0
 49
0.0
140
0.0
141
0.0
142
1.0
143
1.0
 70
   688
 72
     1
 73
     0
 74
     5
  7

 75
    16
147
1.0
148
0.0
149
0.0
100
AcDbLayout
  1
Layout1
 70
     1
 71
     1
 10
0.0
 20
0.0
 11
420.0
 21
297.0
 12
0.0
 22
0.0
 32
0.0
 14
1.0000000000E+20
 24
1.0000000000E+20
 34
1.0000000000E+20
 15
-1.0000000000E+20
 25
-1.0000000000E+20
 35
-1.0000000000E+20
146
0.0
 13
0.0
 23
0.0
 33
0.0
 16
1.0
 26
0.0
 36
0.0
 17
0.0
 27
1.0
 37
0.0
 76
     0
330
1B
  0
LAYOUT
  5
26
102
{ACAD_REACTORS
330
1A
102
}
330
1A
100
AcDbPlotSettings
  1

  2
none_device
  4

  6

 40
0.0
 41
0.0
 42
0.0
 43
0.0
 44
0.0
 45
0.0
 46
0.0
 47
0.0
 48
0.0
 49
0.0
140
0.0
141
0.0
142
1.0
143
1.0
 70
   688
 72
     1
 73
     0
 74
     5
  7

 75
    16
147
1.0
148
0.0
149
0.0
100
AcDbLayout
  1
Layout2
 70
     1
 71
     2
 10
0.0
 20
0.0
 11
0.0
 21
0.0
 12
0.0
 22
0.0
 32
0.0
 14
0.0
 24
0.0
 34
0.0
 15
0.0
 25
0.0
 35
0.0
146
0.0
 13
0.0
 23
0.0
 33
0.0
 16
1.0
 26
0.0
 36
0.0
 17
0.0
 27
1.0
 37
0.0
 76
     0
330
23
  0
LAYOUT
  5
22
102
{ACAD_REACTORS
330
1A
102
}
330
1A
100
AcDbPlotSettings
  1

  2
none_device
  4
Letter_(8.50_x_11.00_Inches)
  6

 40
6.35
 41
6.35
 42
6.35000508
 43
6.35000508
 44
215.9
 45
279.4
 46
0.0
 47
0.0
 48
0.0
 49
0.0
140
0.0
141
0.0
142
1.0
143
1.0
 70
  1712
 72
     1
 73
     0
 74
     0
  7

 75
     0
147
1.0
148
0.0
149
0.0
100
AcDbLayout
  1
Model
 70
     1
 71
     0
 10
0.0
 20
0.0
 11
279.4
 21
215.9
 12
0.0
 22
0.0
 32
0.0
 14
0.0
 24
0.0
 34
0.0
 15
279.4
 25
215.9
 35
0.0
146
0.0
 13
0.0
 23
0.0
 33
0.0
 16
1.0
 26
0.0
 36
0.0
 17
0.0
 27
1.0
 37
0.0
 76
     0
330
1F
331
29
  0
MLINESTYLE
  5
18
102
{ACAD_REACTORS
330
17
102
}
330
17
100
AcDbMlineStyle
  2
Standard
 70
     0
  3

 62
   256
 51
90.0
 52
90.0
 71
     2
 49
0.5
 62
   256
  6
BYLAYER
 49
-0.5
 62
   256
  6
BYLAYER
  0
ACDBPLACEHOLDER
  5
F
102
{ACAD_REACTORS
330
E
102
}
330
E
  0
SCALE
  5
48
102
{ACAD_REACTORS
330
47
102
}
330
47
100
AcDbScale
 70
     0
300
1:1
140
1.0
141
1.0
290
     1
  0
SCALE
  5
49
102
{ACAD_REACTORS
330
47
102
}
330
47
100
AcDbScale
 70
     0
300
1:2
140
1.0
141
2.0
290
     0
  0
SCALE
  5
4A
102
{ACAD_REACTORS
330
47
102
}
330
47
100
AcDbScale
 70
     0
300
1:4
140
1.0
141
4.0
290
     0
  0
SCALE
  5
4B
102
{ACAD_REACTORS
330
47
102
}
330
47
100
AcDbScale
 70
     0
300
1:5
140
1.0
141
5.0
290
     0
  0
SCALE
  5
4C
102
{ACAD_REACTORS
330
47
102
}
330
47
100
AcDbScale
 70
     0
300
1:8
140
1.0
141
8.0
290
     0
  0
SCALE
  5
4D
102
{ACAD_REACTORS
330
47
102
}
330
47
100
AcDbScale
 70
     0
300
1:10
140
1.0
141
10.0
290
     0
  0
SCALE
  5
4E
102
{ACAD_REACTORS
330
47
102
}
330
47
100
AcDbScale
 70
     0
300
1:16
140
1.0
141
16.0
290
     0
  0
SCALE
  5
4F
102
{ACAD_REACTORS
330
47
102
}
330
47
100
AcDbScale
 70
     0
300
1:20
140
1.0
141
20.0
290
     0
  0
SCALE
  5
50
102
{ACAD_REACTORS
330
47
102
}
330
47
100
AcDbScale
 70
     0
300
1:30
140
1.0
141
30.0
290
     0
  0
SCALE
  5
51
102
{ACAD_REACTORS
330
47
102
}
330
47
100
AcDbScale
 70
     0
300
1:40
140
1.0
141
40.0
290
     0
  0
SCALE
  5
52
102
{ACAD_REACTORS
330
47
102
}
330
47
100
AcDbScale
 70
     0
300
1:50
140
1.0
141
50.0
290
     0
  0
SCALE
  5
53
102
{ACAD_REACTORS
330
47
102
}
330
47
100
AcDbScale
 70
     0
300
1:100
140
1.0
141
100.0
290
     0
  0
SCALE
  5
54
102
{ACAD_REACTORS
330
47
102
}
330
47
100
AcDbScale
 70
     0
300
2:1
140
2.0
141
1.0
290
     0
  0
SCALE
  5
55
102
{ACAD_REACTORS
330
47
102
}
330
47
100
AcDbScale
 70
     0
300
4:1
140
4.0
141
1.0
290
     0
  0
SCALE
  5
56
102
{ACAD_REACTORS
330
47
102
}
330
47
100
AcDbScale
 70
     0
300
8:1
140
8.0
141
1.0
290
     0
  0
SCALE
  5
57
102
{ACAD_REACTORS
330
47
102
}
330
47
100
AcDbScale
 70
     0
300
10:1
140
10.0
141
1.0
290
     0
  0
SCALE
  5
58
102
{ACAD_REACTORS
330
47
102
}
330
47
100
AcDbScale
 70
     0
300
100:1
140
100.0
141
1.0
290
     0
  0
SCALE
  5
59
102
{ACAD_REACTORS
330
47
102
}
330
47
100
AcDbScale
 70
     0
300
1/128" = 1'-0"
140
0.0078125
141
12.0
290
     0
  0
SCALE
  5
5A
102
{ACAD_REACTORS
330
47
102
}
330
47
100
AcDbScale
 70
     0
300
1/64" = 1'-0"
140
0.015625
141
12.0
290
     0
  0
SCALE
  5
5B
102
{ACAD_REACTORS
330
47
102
}
330
47
100
AcDbScale
 70
     0
300
1/32" = 1'-0"
140
0.03125
141
12.0
290
     0
  0
SCALE
  5
5C
102
{ACAD_REACTORS
330
47
102
}
330
47
100
AcDbScale
 70
     0
300
1/16" = 1'-0"
140
0.0625
141
12.0
290
     0
  0
SCALE
  5
5D
102
{ACAD_REACTORS
330
47
102
}
330
47
100
AcDbScale
 70
     0
300
3/32" = 1'-0"
140
0.09375
141
12.0
290
     0
  0
SCALE
  5
5E
102
{ACAD_REACTORS
330
47
102
}
330
47
100
AcDbScale
 70
     0
300
1/8" = 1'-0"
140
0.125
141
12.0
290
     0
  0
SCALE
  5
5F
102
{ACAD_REACTORS
330
47
102
}
330
47
100
AcDbScale
 70
     0
300
3/16" = 1'-0"
140
0.1875
141
12.0
290
     0
  0
SCALE
  5
60
102
{ACAD_REACTORS
330
47
102
}
330
47
100
AcDbScale
 70
     0
300
1/4" = 1'-0"
140
0.25
141
12.0
290
     0
  0
SCALE
  5
61
102
{ACAD_REACTORS
330
47
102
}
330
47
100
AcDbScale
 70
     0
300
3/8" = 1'-0"
140
0.375
141
12.0
290
     0
  0
SCALE
  5
62
102
{ACAD_REACTORS
330
47
102
}
330
47
100
AcDbScale
 70
     0
300
1/2" = 1'-0"
140
0.5
141
12.0
290
     0
  0
SCALE
  5
63
102
{ACAD_REACTORS
330
47
102
}
330
47
100
AcDbScale
 70
     0
300
3/4" = 1'-0"
140
0.75
141
12.0
290
     0
  0
SCALE
  5
64
102
{ACAD_REACTORS
330
47
102
}
330
47
100
AcDbScale
 70
     0
300
1" = 1'-0"
140
1.0
141
12.0
290
     0
  0
SCALE
  5
65
102
{ACAD_REACTORS
330
47
102
}
330
47
100
AcDbScale
 70
     0
300
1-1/2" = 1'-0"
140
1.5
141
12.0
290
     0
  0
SCALE
  5
66
102
{ACAD_REACTORS
330
47
102
}
330
47
100
AcDbScale
 70
     0
300
3" = 1'-0"
140
3.0
141
12.0
290
     0
  0
SCALE
  5
67
102
{ACAD_REACTORS
330
47
102
}
330
47
100
AcDbScale
 70
     0
300
6" = 1'-0"
140
6.0
141
12.0
290
     0
  0
SCALE
  5
68
102
{ACAD_REACTORS
330
47
102
}
330
47
100
AcDbScale
 70
     0
300
1'-0" = 1'-0"
140
12.0
141
12.0
290
     0
  0
ENDSEC
  0
EOF
